ISO-10303-21;
HEADER;
/* Generated by software containing ST-Developer
 * from STEP Tools, Inc. (www.steptools.com) 
 */

FILE_DESCRIPTION(
/* description */ (''),
/* implementation_level */ '2;1');

FILE_NAME(
/* name */ 'C:\\Users\\5146755\\Documents\\NVIDEA\\STEPfile\\B1S.stp',
/* time_stamp */ '2016-06-13T11:23:17+09:00',
/* author */ ('5146755'),
/* organization */ (''),
/* preprocessor_version */ 'ST-DEVELOPER v16.1',
/* originating_system */ 'Autodesk Inventor 2016',
/* authorisation */ '');

FILE_SCHEMA (('AUTOMOTIVE_DESIGN { 1 0 10303 214 3 1 1 }'));
ENDSEC;

DATA;
#10=MECHANICAL_DESIGN_GEOMETRIC_PRESENTATION_REPRESENTATION('',(#255,#253,
#254,#264,#257,#256,#258,#259,#260,#261,#262,#263),#470);
#11=ITEM_DEFINED_TRANSFORMATION($,$,#283,#306);
#12=ITEM_DEFINED_TRANSFORMATION($,$,#298,#307);
#13=ITEM_DEFINED_TRANSFORMATION($,$,#298,#308);
#14=(
REPRESENTATION_RELATIONSHIP($,$,#486,#488)
REPRESENTATION_RELATIONSHIP_WITH_TRANSFORMATION(#11)
SHAPE_REPRESENTATION_RELATIONSHIP()
);
#15=(
REPRESENTATION_RELATIONSHIP($,$,#487,#488)
REPRESENTATION_RELATIONSHIP_WITH_TRANSFORMATION(#12)
SHAPE_REPRESENTATION_RELATIONSHIP()
);
#16=(
REPRESENTATION_RELATIONSHIP($,$,#487,#488)
REPRESENTATION_RELATIONSHIP_WITH_TRANSFORMATION(#13)
SHAPE_REPRESENTATION_RELATIONSHIP()
);
#17=CONTEXT_DEPENDENT_SHAPE_REPRESENTATION(#14,#483);
#18=CONTEXT_DEPENDENT_SHAPE_REPRESENTATION(#15,#484);
#19=CONTEXT_DEPENDENT_SHAPE_REPRESENTATION(#16,#485);
#20=NEXT_ASSEMBLY_USAGE_OCCURRENCE('mold-B1S:1','mold-B1S:1',
'mold-B1S:1',#492,#490,'mold-B1S:1');
#21=NEXT_ASSEMBLY_USAGE_OCCURRENCE('Flame-B1S:1','Flame-B1S:1',
'Flame-B1S:1',#492,#491,'Flame-B1S:1');
#22=NEXT_ASSEMBLY_USAGE_OCCURRENCE('Flame-B1S:2','Flame-B1S:2',
'Flame-B1S:2',#492,#491,'Flame-B1S:2');
#23=SHAPE_REPRESENTATION_RELATIONSHIP('SRR','None',#486,#25);
#24=SHAPE_REPRESENTATION_RELATIONSHIP('SRR','None',#487,#26);
#25=ADVANCED_BREP_SHAPE_REPRESENTATION('',(#27),#467);
#26=ADVANCED_BREP_SHAPE_REPRESENTATION('',(#28),#468);
#27=MANIFOLD_SOLID_BREP('\X2\30BD30EA30C330C9\X0\1',#281);
#28=MANIFOLD_SOLID_BREP('\X2\30BD30EA30C330C9\X0\1',#282);
#29=PLANE('',#292);
#30=PLANE('',#293);
#31=PLANE('',#294);
#32=PLANE('',#295);
#33=PLANE('',#296);
#34=PLANE('',#297);
#35=PLANE('',#299);
#36=PLANE('',#300);
#37=PLANE('',#301);
#38=PLANE('',#302);
#39=PLANE('',#303);
#40=PLANE('',#304);
#41=FACE_OUTER_BOUND('',#57,.T.);
#42=FACE_OUTER_BOUND('',#58,.T.);
#43=FACE_OUTER_BOUND('',#59,.T.);
#44=FACE_OUTER_BOUND('',#60,.T.);
#45=FACE_OUTER_BOUND('',#61,.T.);
#46=FACE_OUTER_BOUND('',#62,.T.);
#47=FACE_OUTER_BOUND('',#63,.T.);
#48=FACE_OUTER_BOUND('',#64,.T.);
#49=FACE_OUTER_BOUND('',#65,.T.);
#50=FACE_OUTER_BOUND('',#66,.T.);
#51=FACE_OUTER_BOUND('',#67,.T.);
#52=FACE_OUTER_BOUND('',#68,.T.);
#53=FACE_OUTER_BOUND('',#69,.T.);
#54=FACE_OUTER_BOUND('',#70,.T.);
#55=FACE_OUTER_BOUND('',#71,.T.);
#56=FACE_OUTER_BOUND('',#72,.T.);
#57=EDGE_LOOP('',(#185,#186,#187,#188));
#58=EDGE_LOOP('',(#189,#190,#191,#192));
#59=EDGE_LOOP('',(#193,#194,#195,#196));
#60=EDGE_LOOP('',(#197,#198,#199,#200));
#61=EDGE_LOOP('',(#201,#202,#203,#204));
#62=EDGE_LOOP('',(#205,#206,#207,#208));
#63=EDGE_LOOP('',(#209,#210,#211,#212));
#64=EDGE_LOOP('',(#213,#214,#215,#216));
#65=EDGE_LOOP('',(#217,#218,#219,#220));
#66=EDGE_LOOP('',(#221,#222,#223,#224));
#67=EDGE_LOOP('',(#225,#226,#227,#228));
#68=EDGE_LOOP('',(#229,#230,#231,#232));
#69=EDGE_LOOP('',(#233,#234,#235,#236));
#70=EDGE_LOOP('',(#237,#238,#239,#240));
#71=EDGE_LOOP('',(#241,#242,#243,#244));
#72=EDGE_LOOP('',(#245,#246,#247,#248));
#73=ELLIPSE('',#285,0.282842712474619,0.2);
#74=ELLIPSE('',#286,0.282842712474619,0.2);
#75=ELLIPSE('',#288,0.282842712474619,0.2);
#76=ELLIPSE('',#290,0.282842712474619,0.2);
#77=LINE('',#393,#105);
#78=LINE('',#397,#106);
#79=LINE('',#401,#107);
#80=LINE('',#404,#108);
#81=LINE('',#407,#109);
#82=LINE('',#410,#110);
#83=LINE('',#412,#111);
#84=LINE('',#413,#112);
#85=LINE('',#416,#113);
#86=LINE('',#418,#114);
#87=LINE('',#419,#115);
#88=LINE('',#422,#116);
#89=LINE('',#423,#117);
#90=LINE('',#427,#118);
#91=LINE('',#428,#119);
#92=LINE('',#430,#120);
#93=LINE('',#436,#121);
#94=LINE('',#438,#122);
#95=LINE('',#440,#123);
#96=LINE('',#441,#124);
#97=LINE('',#444,#125);
#98=LINE('',#446,#126);
#99=LINE('',#447,#127);
#100=LINE('',#450,#128);
#101=LINE('',#452,#129);
#102=LINE('',#453,#130);
#103=LINE('',#455,#131);
#104=LINE('',#456,#132);
#105=VECTOR('',#313,2.31559861474797);
#106=VECTOR('',#316,2.71505042864979);
#107=VECTOR('',#321,2.81559861474797);
#108=VECTOR('',#324,3.2150504286498);
#109=VECTOR('',#327,2.31559861474797);
#110=VECTOR('',#330,2.71505042864979);
#111=VECTOR('',#333,3.2150504286498);
#112=VECTOR('',#334,2.81559861474797);
#113=VECTOR('',#337,0.812690151857809);
#114=VECTOR('',#338,3.3);
#115=VECTOR('',#339,0.812690151857809);
#116=VECTOR('',#342,0.812690151857809);
#117=VECTOR('',#343,2.8);
#118=VECTOR('',#348,0.812690151857809);
#119=VECTOR('',#349,3.3);
#120=VECTOR('',#352,2.8);
#121=VECTOR('',#359,2.2);
#122=VECTOR('',#360,0.1);
#123=VECTOR('',#361,2.2);
#124=VECTOR('',#362,0.1);
#125=VECTOR('',#365,0.8);
#126=VECTOR('',#366,0.8);
#127=VECTOR('',#367,0.1);
#128=VECTOR('',#370,2.2);
#129=VECTOR('',#371,2.2);
#130=VECTOR('',#372,0.1);
#131=VECTOR('',#375,0.8);
#132=VECTOR('',#376,0.8);
#133=VERTEX_POINT('',#391);
#134=VERTEX_POINT('',#392);
#135=VERTEX_POINT('',#394);
#136=VERTEX_POINT('',#396);
#137=VERTEX_POINT('',#400);
#138=VERTEX_POINT('',#402);
#139=VERTEX_POINT('',#406);
#140=VERTEX_POINT('',#408);
#141=VERTEX_POINT('',#415);
#142=VERTEX_POINT('',#417);
#143=VERTEX_POINT('',#421);
#144=VERTEX_POINT('',#426);
#145=VERTEX_POINT('',#434);
#146=VERTEX_POINT('',#435);
#147=VERTEX_POINT('',#437);
#148=VERTEX_POINT('',#439);
#149=VERTEX_POINT('',#443);
#150=VERTEX_POINT('',#445);
#151=VERTEX_POINT('',#449);
#152=VERTEX_POINT('',#451);
#153=EDGE_CURVE('',#133,#134,#77,.T.);
#154=EDGE_CURVE('',#134,#135,#73,.T.);
#155=EDGE_CURVE('',#135,#136,#78,.T.);
#156=EDGE_CURVE('',#133,#136,#74,.T.);
#157=EDGE_CURVE('',#134,#137,#79,.T.);
#158=EDGE_CURVE('',#137,#138,#75,.T.);
#159=EDGE_CURVE('',#138,#135,#80,.T.);
#160=EDGE_CURVE('',#137,#139,#81,.T.);
#161=EDGE_CURVE('',#139,#140,#76,.T.);
#162=EDGE_CURVE('',#140,#138,#82,.T.);
#163=EDGE_CURVE('',#136,#140,#83,.T.);
#164=EDGE_CURVE('',#139,#133,#84,.T.);
#165=EDGE_CURVE('',#141,#136,#85,.F.);
#166=EDGE_CURVE('',#141,#142,#86,.T.);
#167=EDGE_CURVE('',#142,#140,#87,.F.);
#168=EDGE_CURVE('',#143,#135,#88,.T.);
#169=EDGE_CURVE('',#143,#141,#89,.T.);
#170=EDGE_CURVE('',#144,#138,#90,.T.);
#171=EDGE_CURVE('',#144,#143,#91,.T.);
#172=EDGE_CURVE('',#142,#144,#92,.T.);
#173=EDGE_CURVE('',#145,#146,#93,.T.);
#174=EDGE_CURVE('',#146,#147,#94,.T.);
#175=EDGE_CURVE('',#148,#147,#95,.T.);
#176=EDGE_CURVE('',#145,#148,#96,.T.);
#177=EDGE_CURVE('',#149,#145,#97,.T.);
#178=EDGE_CURVE('',#150,#148,#98,.T.);
#179=EDGE_CURVE('',#149,#150,#99,.T.);
#180=EDGE_CURVE('',#151,#149,#100,.T.);
#181=EDGE_CURVE('',#152,#150,#101,.T.);
#182=EDGE_CURVE('',#151,#152,#102,.T.);
#183=EDGE_CURVE('',#146,#151,#103,.T.);
#184=EDGE_CURVE('',#147,#152,#104,.T.);
#185=ORIENTED_EDGE('',*,*,#153,.T.);
#186=ORIENTED_EDGE('',*,*,#154,.T.);
#187=ORIENTED_EDGE('',*,*,#155,.T.);
#188=ORIENTED_EDGE('',*,*,#156,.F.);
#189=ORIENTED_EDGE('',*,*,#157,.T.);
#190=ORIENTED_EDGE('',*,*,#158,.T.);
#191=ORIENTED_EDGE('',*,*,#159,.T.);
#192=ORIENTED_EDGE('',*,*,#154,.F.);
#193=ORIENTED_EDGE('',*,*,#160,.T.);
#194=ORIENTED_EDGE('',*,*,#161,.T.);
#195=ORIENTED_EDGE('',*,*,#162,.T.);
#196=ORIENTED_EDGE('',*,*,#158,.F.);
#197=ORIENTED_EDGE('',*,*,#163,.T.);
#198=ORIENTED_EDGE('',*,*,#161,.F.);
#199=ORIENTED_EDGE('',*,*,#164,.T.);
#200=ORIENTED_EDGE('',*,*,#156,.T.);
#201=ORIENTED_EDGE('',*,*,#163,.F.);
#202=ORIENTED_EDGE('',*,*,#165,.F.);
#203=ORIENTED_EDGE('',*,*,#166,.T.);
#204=ORIENTED_EDGE('',*,*,#167,.T.);
#205=ORIENTED_EDGE('',*,*,#155,.F.);
#206=ORIENTED_EDGE('',*,*,#168,.F.);
#207=ORIENTED_EDGE('',*,*,#169,.T.);
#208=ORIENTED_EDGE('',*,*,#165,.T.);
#209=ORIENTED_EDGE('',*,*,#153,.F.);
#210=ORIENTED_EDGE('',*,*,#164,.F.);
#211=ORIENTED_EDGE('',*,*,#160,.F.);
#212=ORIENTED_EDGE('',*,*,#157,.F.);
#213=ORIENTED_EDGE('',*,*,#159,.F.);
#214=ORIENTED_EDGE('',*,*,#170,.F.);
#215=ORIENTED_EDGE('',*,*,#171,.T.);
#216=ORIENTED_EDGE('',*,*,#168,.T.);
#217=ORIENTED_EDGE('',*,*,#162,.F.);
#218=ORIENTED_EDGE('',*,*,#167,.F.);
#219=ORIENTED_EDGE('',*,*,#172,.T.);
#220=ORIENTED_EDGE('',*,*,#170,.T.);
#221=ORIENTED_EDGE('',*,*,#169,.F.);
#222=ORIENTED_EDGE('',*,*,#171,.F.);
#223=ORIENTED_EDGE('',*,*,#172,.F.);
#224=ORIENTED_EDGE('',*,*,#166,.F.);
#225=ORIENTED_EDGE('',*,*,#173,.T.);
#226=ORIENTED_EDGE('',*,*,#174,.T.);
#227=ORIENTED_EDGE('',*,*,#175,.F.);
#228=ORIENTED_EDGE('',*,*,#176,.F.);
#229=ORIENTED_EDGE('',*,*,#177,.T.);
#230=ORIENTED_EDGE('',*,*,#176,.T.);
#231=ORIENTED_EDGE('',*,*,#178,.F.);
#232=ORIENTED_EDGE('',*,*,#179,.F.);
#233=ORIENTED_EDGE('',*,*,#180,.T.);
#234=ORIENTED_EDGE('',*,*,#179,.T.);
#235=ORIENTED_EDGE('',*,*,#181,.F.);
#236=ORIENTED_EDGE('',*,*,#182,.F.);
#237=ORIENTED_EDGE('',*,*,#183,.T.);
#238=ORIENTED_EDGE('',*,*,#182,.T.);
#239=ORIENTED_EDGE('',*,*,#184,.F.);
#240=ORIENTED_EDGE('',*,*,#174,.F.);
#241=ORIENTED_EDGE('',*,*,#184,.T.);
#242=ORIENTED_EDGE('',*,*,#181,.T.);
#243=ORIENTED_EDGE('',*,*,#178,.T.);
#244=ORIENTED_EDGE('',*,*,#175,.T.);
#245=ORIENTED_EDGE('',*,*,#183,.F.);
#246=ORIENTED_EDGE('',*,*,#173,.F.);
#247=ORIENTED_EDGE('',*,*,#177,.F.);
#248=ORIENTED_EDGE('',*,*,#180,.F.);
#249=CYLINDRICAL_SURFACE('',#284,0.2);
#250=CYLINDRICAL_SURFACE('',#287,0.2);
#251=CYLINDRICAL_SURFACE('',#289,0.2);
#252=CYLINDRICAL_SURFACE('',#291,0.2);
#253=STYLED_ITEM('',(#506),#265);
#254=STYLED_ITEM('',(#506),#266);
#255=STYLED_ITEM('',(#506),#267);
#256=STYLED_ITEM('',(#506),#268);
#257=STYLED_ITEM('',(#506),#269);
#258=STYLED_ITEM('',(#506),#270);
#259=STYLED_ITEM('',(#506),#271);
#260=STYLED_ITEM('',(#506),#272);
#261=STYLED_ITEM('',(#506),#273);
#262=STYLED_ITEM('',(#506),#274);
#263=STYLED_ITEM('',(#505),#27);
#264=STYLED_ITEM('',(#505),#28);
#265=ADVANCED_FACE('',(#41),#249,.T.);
#266=ADVANCED_FACE('',(#42),#250,.T.);
#267=ADVANCED_FACE('',(#43),#251,.T.);
#268=ADVANCED_FACE('',(#44),#252,.T.);
#269=ADVANCED_FACE('',(#45),#29,.T.);
#270=ADVANCED_FACE('',(#46),#30,.T.);
#271=ADVANCED_FACE('',(#47),#31,.T.);
#272=ADVANCED_FACE('',(#48),#32,.T.);
#273=ADVANCED_FACE('',(#49),#33,.T.);
#274=ADVANCED_FACE('',(#50),#34,.T.);
#275=ADVANCED_FACE('',(#51),#35,.T.);
#276=ADVANCED_FACE('',(#52),#36,.T.);
#277=ADVANCED_FACE('',(#53),#37,.T.);
#278=ADVANCED_FACE('',(#54),#38,.T.);
#279=ADVANCED_FACE('',(#55),#39,.T.);
#280=ADVANCED_FACE('',(#56),#40,.F.);
#281=CLOSED_SHELL('',(#265,#266,#267,#268,#269,#270,#271,#272,#273,#274));
#282=CLOSED_SHELL('',(#275,#276,#277,#278,#279,#280));
#283=AXIS2_PLACEMENT_3D('placement',#389,#309,#310);
#284=AXIS2_PLACEMENT_3D('',#390,#311,#312);
#285=AXIS2_PLACEMENT_3D('',#395,#314,#315);
#286=AXIS2_PLACEMENT_3D('',#398,#317,#318);
#287=AXIS2_PLACEMENT_3D('',#399,#319,#320);
#288=AXIS2_PLACEMENT_3D('',#403,#322,#323);
#289=AXIS2_PLACEMENT_3D('',#405,#325,#326);
#290=AXIS2_PLACEMENT_3D('',#409,#328,#329);
#291=AXIS2_PLACEMENT_3D('',#411,#331,#332);
#292=AXIS2_PLACEMENT_3D('',#414,#335,#336);
#293=AXIS2_PLACEMENT_3D('',#420,#340,#341);
#294=AXIS2_PLACEMENT_3D('',#424,#344,#345);
#295=AXIS2_PLACEMENT_3D('',#425,#346,#347);
#296=AXIS2_PLACEMENT_3D('',#429,#350,#351);
#297=AXIS2_PLACEMENT_3D('',#431,#353,#354);
#298=AXIS2_PLACEMENT_3D('placement',#432,#355,#356);
#299=AXIS2_PLACEMENT_3D('',#433,#357,#358);
#300=AXIS2_PLACEMENT_3D('',#442,#363,#364);
#301=AXIS2_PLACEMENT_3D('',#448,#368,#369);
#302=AXIS2_PLACEMENT_3D('',#454,#373,#374);
#303=AXIS2_PLACEMENT_3D('',#457,#377,#378);
#304=AXIS2_PLACEMENT_3D('',#458,#379,#380);
#305=AXIS2_PLACEMENT_3D('placement',#459,#381,#382);
#306=AXIS2_PLACEMENT_3D('',#460,#383,#384);
#307=AXIS2_PLACEMENT_3D('',#461,#385,#386);
#308=AXIS2_PLACEMENT_3D('',#462,#387,#388);
#309=DIRECTION('axis',(0.,0.,1.));
#310=DIRECTION('refdir',(1.,0.,0.));
#311=DIRECTION('center_axis',(1.,0.,-1.98254111540207E-16));
#312=DIRECTION('ref_axis',(0.,0.725374371012287,0.688354575693755));
#313=DIRECTION('',(-1.,0.,1.98254111540207E-16));
#314=DIRECTION('center_axis',(0.707106781186548,0.,0.707106781186547));
#315=DIRECTION('ref_axis',(-0.707106781186547,0.,0.707106781186548));
#316=DIRECTION('',(1.,0.,-1.98254111540207E-16));
#317=DIRECTION('center_axis',(0.707106781186547,-4.9065389333868E-16,-0.707106781186548));
#318=DIRECTION('ref_axis',(0.707106781186548,-4.9065389333868E-16,0.707106781186547));
#319=DIRECTION('center_axis',(5.04646829375071E-16,0.,1.));
#320=DIRECTION('ref_axis',(-0.688354575693755,0.725374371012287,0.));
#321=DIRECTION('',(-5.04646829375071E-16,0.,-1.));
#322=DIRECTION('center_axis',(-0.707106781186548,0.,0.707106781186548));
#323=DIRECTION('ref_axis',(-0.707106781186547,0.,-0.707106781186547));
#324=DIRECTION('',(5.04646829375071E-16,0.,1.));
#325=DIRECTION('center_axis',(-1.,0.,1.98254111540207E-16));
#326=DIRECTION('ref_axis',(0.,0.725374371012287,-0.688354575693755));
#327=DIRECTION('',(1.,0.,-1.98254111540207E-16));
#328=DIRECTION('center_axis',(-0.707106781186547,4.90653893338679E-16,-0.707106781186548));
#329=DIRECTION('ref_axis',(0.707106781186548,4.90653893338678E-16,-0.707106781186547));
#330=DIRECTION('',(-1.,0.,1.98254111540207E-16));
#331=DIRECTION('center_axis',(-3.36431219583381E-16,0.,-1.));
#332=DIRECTION('ref_axis',(0.688354575693755,0.725374371012287,0.));
#333=DIRECTION('',(-3.36431219583381E-16,0.,-1.));
#334=DIRECTION('',(3.36431219583381E-16,0.,1.));
#335=DIRECTION('center_axis',(0.998629534754574,0.0523359562429438,-3.35970152289465E-16));
#336=DIRECTION('ref_axis',(-3.33066907387547E-16,0.,-1.));
#337=DIRECTION('',(0.052264427688714,-0.997264688634237,0.0522644276887139));
#338=DIRECTION('',(-3.36431219583381E-16,0.,-1.));
#339=DIRECTION('',(0.0522644276887139,-0.997264688634237,-0.0522644276887139));
#340=DIRECTION('center_axis',(1.97982411170578E-16,0.0523359562429438,0.998629534754574));
#341=DIRECTION('ref_axis',(1.,0.,-1.99840144432528E-16));
#342=DIRECTION('',(0.0522644276887139,0.997264688634237,-0.0522644276887139));
#343=DIRECTION('',(1.,0.,-1.98254111540207E-16));
#344=DIRECTION('center_axis',(0.,1.,0.));
#345=DIRECTION('ref_axis',(0.,0.,1.));
#346=DIRECTION('center_axis',(-0.998629534754574,0.0523359562429438,5.03955228434198E-16));
#347=DIRECTION('ref_axis',(5.10702591327572E-16,0.,1.));
#348=DIRECTION('',(0.052264427688714,0.997264688634237,0.0522644276887139));
#349=DIRECTION('',(5.04646829375071E-16,0.,1.));
#350=DIRECTION('center_axis',(-1.97982411170578E-16,0.0523359562429438,
-0.998629534754574));
#351=DIRECTION('ref_axis',(-1.,0.,1.99840144432528E-16));
#352=DIRECTION('',(-1.,0.,1.98254111540207E-16));
#353=DIRECTION('center_axis',(0.,-1.,0.));
#354=DIRECTION('ref_axis',(0.,0.,-1.));
#355=DIRECTION('axis',(0.,0.,1.));
#356=DIRECTION('refdir',(1.,0.,0.));
#357=DIRECTION('center_axis',(-1.,0.,0.));
#358=DIRECTION('ref_axis',(0.,0.,1.));
#359=DIRECTION('',(0.,0.,1.));
#360=DIRECTION('',(0.,1.,0.));
#361=DIRECTION('',(0.,0.,1.));
#362=DIRECTION('',(0.,1.,0.));
#363=DIRECTION('center_axis',(0.,0.,-1.));
#364=DIRECTION('ref_axis',(-1.,0.,0.));
#365=DIRECTION('',(-1.,0.,0.));
#366=DIRECTION('',(-1.,0.,0.));
#367=DIRECTION('',(0.,1.,0.));
#368=DIRECTION('center_axis',(1.,0.,0.));
#369=DIRECTION('ref_axis',(0.,0.,-1.));
#370=DIRECTION('',(0.,0.,-1.));
#371=DIRECTION('',(0.,0.,-1.));
#372=DIRECTION('',(0.,1.,0.));
#373=DIRECTION('center_axis',(0.,0.,1.));
#374=DIRECTION('ref_axis',(1.,0.,0.));
#375=DIRECTION('',(1.,0.,0.));
#376=DIRECTION('',(1.,0.,0.));
#377=DIRECTION('center_axis',(0.,1.,0.));
#378=DIRECTION('ref_axis',(0.,0.,1.));
#379=DIRECTION('center_axis',(0.,1.,0.));
#380=DIRECTION('ref_axis',(0.,0.,1.));
#381=DIRECTION('axis',(0.,0.,1.));
#382=DIRECTION('refdir',(1.,0.,0.));
#383=DIRECTION('',(3.12250225675722E-17,-3.38701289237519E-12,-1.));
#384=DIRECTION('',(-1.,-4.44522890719057E-17,-3.12250225674217E-17));
#385=DIRECTION('',(1.,1.12757025938492E-17,3.46944695241035E-18));
#386=DIRECTION('',(3.46944695244855E-18,-3.38756800388752E-12,-1.));
#387=DIRECTION('',(1.,-3.25260651745771E-17,-6.93889390287508E-18));
#388=DIRECTION('',(6.93889390298527E-18,3.38767902618996E-12,1.));
#389=CARTESIAN_POINT('',(0.,0.,0.));
#390=CARTESIAN_POINT('Origin',(-0.7,0.8,1.40779930737398));
#391=CARTESIAN_POINT('',(1.15779930737398,1.,1.40779930737398));
#392=CARTESIAN_POINT('',(-1.15779930737398,1.,1.40779930737398));
#393=CARTESIAN_POINT('',(-0.7,1.,1.40779930737398));
#394=CARTESIAN_POINT('',(-1.3575252143249,0.810467191248589,1.6075252143249));
#395=CARTESIAN_POINT('Origin',(-1.15779930737398,0.8,1.40779930737398));
#396=CARTESIAN_POINT('',(1.3575252143249,0.810467191248589,1.6075252143249));
#397=CARTESIAN_POINT('',(-0.7,0.810467191248589,1.6075252143249));
#398=CARTESIAN_POINT('Origin',(1.15779930737398,0.8,1.40779930737398));
#399=CARTESIAN_POINT('Origin',(-1.15779930737398,0.8,-0.825));
#400=CARTESIAN_POINT('',(-1.15779930737398,1.,-1.40779930737398));
#401=CARTESIAN_POINT('',(-1.15779930737398,1.,-0.825));
#402=CARTESIAN_POINT('',(-1.3575252143249,0.810467191248589,-1.6075252143249));
#403=CARTESIAN_POINT('Origin',(-1.15779930737398,0.8,-1.40779930737398));
#404=CARTESIAN_POINT('',(-1.3575252143249,0.810467191248589,-0.825));
#405=CARTESIAN_POINT('Origin',(0.699999999999999,0.8,-1.40779930737398));
#406=CARTESIAN_POINT('',(1.15779930737398,1.,-1.40779930737398));
#407=CARTESIAN_POINT('',(0.699999999999999,1.,-1.40779930737398));
#408=CARTESIAN_POINT('',(1.3575252143249,0.810467191248589,-1.6075252143249));
#409=CARTESIAN_POINT('Origin',(1.15779930737398,0.8,-1.40779930737398));
#410=CARTESIAN_POINT('',(0.699999999999999,0.810467191248589,-1.6075252143249));
#411=CARTESIAN_POINT('Origin',(1.15779930737398,0.8,0.824999999999999));
#412=CARTESIAN_POINT('',(1.3575252143249,0.810467191248589,0.824999999999999));
#413=CARTESIAN_POINT('',(1.15779930737398,1.,0.824999999999999));
#414=CARTESIAN_POINT('Origin',(1.4,8.67361737988404E-18,1.65));
#415=CARTESIAN_POINT('',(1.4,0.,1.65));
#416=CARTESIAN_POINT('',(1.39617580143772,0.0729700554878846,1.64617580143772));
#417=CARTESIAN_POINT('',(1.4,0.,-1.65));
#418=CARTESIAN_POINT('',(1.4,0.,1.65));
#419=CARTESIAN_POINT('',(1.39549290883731,0.0860004225392926,-1.64549290883731));
#420=CARTESIAN_POINT('Origin',(-1.4,-1.73472347597681E-17,1.65));
#421=CARTESIAN_POINT('',(-1.4,0.,1.65));
#422=CARTESIAN_POINT('',(-1.39549290883731,0.0860004225392926,1.64549290883731));
#423=CARTESIAN_POINT('',(-1.4,0.,1.65));
#424=CARTESIAN_POINT('Origin',(-5.55111512312578E-16,1.,-5.55111512312578E-16));
#425=CARTESIAN_POINT('Origin',(-1.4,0.,-1.65));
#426=CARTESIAN_POINT('',(-1.4,0.,-1.65));
#427=CARTESIAN_POINT('',(-1.39617580143772,0.0729700554878847,-1.64617580143772));
#428=CARTESIAN_POINT('',(-1.4,0.,-1.65));
#429=CARTESIAN_POINT('Origin',(1.4,-1.73472347597681E-17,-1.65));
#430=CARTESIAN_POINT('',(1.4,0.,-1.65));
#431=CARTESIAN_POINT('Origin',(-4.69228481206841E-16,0.,-6.29619307510271E-16));
#432=CARTESIAN_POINT('',(0.,0.,0.));
#433=CARTESIAN_POINT('Origin',(-0.4,0.,-1.1));
#434=CARTESIAN_POINT('',(-0.4,0.,-1.1));
#435=CARTESIAN_POINT('',(-0.4,0.,1.1));
#436=CARTESIAN_POINT('',(-0.4,0.,-1.1));
#437=CARTESIAN_POINT('',(-0.4,0.1,1.1));
#438=CARTESIAN_POINT('',(-0.4,0.,1.1));
#439=CARTESIAN_POINT('',(-0.4,0.1,-1.1));
#440=CARTESIAN_POINT('',(-0.4,0.1,-1.1));
#441=CARTESIAN_POINT('',(-0.4,0.,-1.1));
#442=CARTESIAN_POINT('Origin',(0.4,0.,-1.1));
#443=CARTESIAN_POINT('',(0.4,0.,-1.1));
#444=CARTESIAN_POINT('',(0.4,0.,-1.1));
#445=CARTESIAN_POINT('',(0.4,0.1,-1.1));
#446=CARTESIAN_POINT('',(0.4,0.1,-1.1));
#447=CARTESIAN_POINT('',(0.4,0.,-1.1));
#448=CARTESIAN_POINT('Origin',(0.4,0.,1.1));
#449=CARTESIAN_POINT('',(0.4,0.,1.1));
#450=CARTESIAN_POINT('',(0.4,0.,1.1));
#451=CARTESIAN_POINT('',(0.4,0.1,1.1));
#452=CARTESIAN_POINT('',(0.4,0.1,1.1));
#453=CARTESIAN_POINT('',(0.4,0.,1.1));
#454=CARTESIAN_POINT('Origin',(-0.4,0.,1.1));
#455=CARTESIAN_POINT('',(-0.4,0.,1.1));
#456=CARTESIAN_POINT('',(-0.4,0.1,1.1));
#457=CARTESIAN_POINT('Origin',(0.,0.1,0.));
#458=CARTESIAN_POINT('Origin',(0.,0.,0.));
#459=CARTESIAN_POINT('',(0.,0.,0.));
#460=CARTESIAN_POINT('',(9.62964972193618E-35,4.28059973100703E-51,3.00686029883823E-51));
#461=CARTESIAN_POINT('',(-3.03576608274642E-19,-0.0999999999954266,1.35000000000034));
#462=CARTESIAN_POINT('',(4.33680868990839E-18,-4.57325427527521E-12,-1.35));
#463=UNCERTAINTY_MEASURE_WITH_UNIT(LENGTH_MEASURE(0.01),#471,
'DISTANCE_ACCURACY_VALUE',
'Maximum model space distance between geometric entities at asserted c
onnectivities');
#464=UNCERTAINTY_MEASURE_WITH_UNIT(LENGTH_MEASURE(0.01),#471,
'DISTANCE_ACCURACY_VALUE',
'Maximum model space distance between geometric entities at asserted c
onnectivities');
#465=UNCERTAINTY_MEASURE_WITH_UNIT(LENGTH_MEASURE(0.01),#471,
'DISTANCE_ACCURACY_VALUE',
'Maximum model space distance between geometric entities at asserted c
onnectivities');
#466=UNCERTAINTY_MEASURE_WITH_UNIT(LENGTH_MEASURE(1.E-6),#471,
'DISTANCE_ACCURACY_VALUE',
'Maximum model space distance between geometric entities at asserted c
onnectivities');
#467=(
GEOMETRIC_REPRESENTATION_CONTEXT(3)
GLOBAL_UNCERTAINTY_ASSIGNED_CONTEXT((#463))
GLOBAL_UNIT_ASSIGNED_CONTEXT((#471,#474,#472))
REPRESENTATION_CONTEXT('','3D')
);
#468=(
GEOMETRIC_REPRESENTATION_CONTEXT(3)
GLOBAL_UNCERTAINTY_ASSIGNED_CONTEXT((#464))
GLOBAL_UNIT_ASSIGNED_CONTEXT((#471,#474,#472))
REPRESENTATION_CONTEXT('','3D')
);
#469=(
GEOMETRIC_REPRESENTATION_CONTEXT(3)
GLOBAL_UNCERTAINTY_ASSIGNED_CONTEXT((#465))
GLOBAL_UNIT_ASSIGNED_CONTEXT((#471,#474,#472))
REPRESENTATION_CONTEXT('','3D')
);
#470=(
GEOMETRIC_REPRESENTATION_CONTEXT(3)
GLOBAL_UNCERTAINTY_ASSIGNED_CONTEXT((#466))
GLOBAL_UNIT_ASSIGNED_CONTEXT((#471,#474,#472))
REPRESENTATION_CONTEXT('','3D')
);
#471=(
LENGTH_UNIT()
NAMED_UNIT(*)
SI_UNIT(.MILLI.,.METRE.)
);
#472=(
NAMED_UNIT(*)
SI_UNIT($,.STERADIAN.)
SOLID_ANGLE_UNIT()
);
#473=DIMENSIONAL_EXPONENTS(0.,0.,0.,0.,0.,0.,0.);
#474=(
CONVERSION_BASED_UNIT('degree',#476)
NAMED_UNIT(#473)
PLANE_ANGLE_UNIT()
);
#475=(
NAMED_UNIT(*)
PLANE_ANGLE_UNIT()
SI_UNIT($,.RADIAN.)
);
#476=PLANE_ANGLE_MEASURE_WITH_UNIT(PLANE_ANGLE_MEASURE(0.01745329252),#475);
#477=SHAPE_DEFINITION_REPRESENTATION(#480,#486);
#478=SHAPE_DEFINITION_REPRESENTATION(#481,#487);
#479=SHAPE_DEFINITION_REPRESENTATION(#482,#488);
#480=PRODUCT_DEFINITION_SHAPE('',$,#490);
#481=PRODUCT_DEFINITION_SHAPE('',$,#491);
#482=PRODUCT_DEFINITION_SHAPE('',$,#492);
#483=PRODUCT_DEFINITION_SHAPE($,$,#20);
#484=PRODUCT_DEFINITION_SHAPE($,$,#21);
#485=PRODUCT_DEFINITION_SHAPE($,$,#22);
#486=SHAPE_REPRESENTATION('',(#283),#467);
#487=SHAPE_REPRESENTATION('',(#298),#468);
#488=SHAPE_REPRESENTATION('',(#305,#306,#307,#308),#469);
#489=PRODUCT_DEFINITION_CONTEXT('part definition',#500,'design');
#490=PRODUCT_DEFINITION('mold-B1S','mold-B1S',#493,#489);
#491=PRODUCT_DEFINITION('Flame-B1S','Flame-B1S',#494,#489);
#492=PRODUCT_DEFINITION('B1S-Assy-35QTC68MHD','B1S-Assy-35QTC68MHD',#495,
#489);
#493=PRODUCT_DEFINITION_FORMATION('',$,#502);
#494=PRODUCT_DEFINITION_FORMATION('',$,#503);
#495=PRODUCT_DEFINITION_FORMATION('',$,#504);
#496=PRODUCT_RELATED_PRODUCT_CATEGORY('mold-B1S','mold-B1S',(#502));
#497=PRODUCT_RELATED_PRODUCT_CATEGORY('Flame-B1S','Flame-B1S',(#503));
#498=PRODUCT_RELATED_PRODUCT_CATEGORY('B1S-Assy-35QTC68MHD',
'B1S-Assy-35QTC68MHD',(#504));
#499=APPLICATION_PROTOCOL_DEFINITION('international standard',
'automotive_design',2009,#500);
#500=APPLICATION_CONTEXT(
'Core Data for Automotive Mechanical Design Process');
#501=PRODUCT_CONTEXT('part definition',#500,'mechanical');
#502=PRODUCT('mold-B1S','mold-B1S',$,(#501));
#503=PRODUCT('Flame-B1S','Flame-B1S',$,(#501));
#504=PRODUCT('B1S-Assy-35QTC68MHD','B1S-Assy-35QTC68MHD',$,(#501));
#505=PRESENTATION_STYLE_ASSIGNMENT((#507));
#506=PRESENTATION_STYLE_ASSIGNMENT((#508));
#507=SURFACE_STYLE_USAGE(.BOTH.,#509);
#508=SURFACE_STYLE_USAGE(.BOTH.,#510);
#509=SURFACE_SIDE_STYLE('',(#511));
#510=SURFACE_SIDE_STYLE('',(#512));
#511=SURFACE_STYLE_FILL_AREA(#513);
#512=SURFACE_STYLE_FILL_AREA(#514);
#513=FILL_AREA_STYLE('',(#515));
#514=FILL_AREA_STYLE('',(#516));
#515=FILL_AREA_STYLE_COLOUR('',#517);
#516=FILL_AREA_STYLE_COLOUR('',#518);
#517=COLOUR_RGB('',0.749019607843137,0.749019607843137,0.749019607843137);
#518=COLOUR_RGB('',0.23921568627451,0.23921568627451,0.23921568627451);
ENDSEC;
END-ISO-10303-21;
