ISO-10303-21;
HEADER;
FILE_DESCRIPTION((''),'2;1');
FILE_NAME('C61020-A0045-C010-03-7606','2018-06-11T',('ec7121'),(''),
'PRO/ENGINEER BY PARAMETRIC TECHNOLOGY CORPORATION, 2014000',
'PRO/ENGINEER BY PARAMETRIC TECHNOLOGY CORPORATION, 2014000','');
FILE_SCHEMA(('CONFIG_CONTROL_DESIGN'));
ENDSEC;
DATA;
#1=DIRECTION('',(1.E0,0.E0,0.E0));
#2=VECTOR('',#1,8.E0);
#3=CARTESIAN_POINT('',(-4.E0,1.025E1,0.E0));
#4=LINE('',#3,#2);
#5=DIRECTION('',(1.E0,0.E0,0.E0));
#6=VECTOR('',#5,8.E0);
#7=CARTESIAN_POINT('',(-4.E0,-1.025E1,1.134849855833E-13));
#8=LINE('',#7,#6);
#9=CARTESIAN_POINT('',(4.441765742908E0,0.E0,0.E0));
#10=DIRECTION('',(1.E0,0.E0,0.E0));
#11=DIRECTION('',(0.E0,-1.E0,1.130139009627E-14));
#12=AXIS2_PLACEMENT_3D('',#9,#10,#11);
#14=DIRECTION('',(-7.071067811865E-1,7.071067811865E-1,-6.912344704187E-14));
#15=VECTOR('',#14,6.247511050125E-1);
#16=CARTESIAN_POINT('',(4.441765742908E0,-1.069176574291E1,1.543939783045E-13));
#17=LINE('',#16,#15);
#18=CARTESIAN_POINT('',(4.E0,0.E0,0.E0));
#19=DIRECTION('',(-1.E0,0.E0,0.E0));
#20=DIRECTION('',(0.E0,1.E0,0.E0));
#21=AXIS2_PLACEMENT_3D('',#18,#19,#20);
#23=DIRECTION('',(-7.071067811865E-1,-7.071067811865E-1,0.E0));
#24=VECTOR('',#23,6.247511050125E-1);
#25=CARTESIAN_POINT('',(4.441765742908E0,1.069176574291E1,0.E0));
#26=LINE('',#25,#24);
#27=CARTESIAN_POINT('',(3.805369639840E0,-1.132816184598E1,1.883922705337E-13));
#28=DIRECTION('',(0.E0,-1.663044159848E-14,-1.E0));
#29=DIRECTION('',(7.071067811865E-1,7.071067811865E-1,-1.175949802841E-14));
#30=AXIS2_PLACEMENT_3D('',#27,#28,#29);
#32=CARTESIAN_POINT('',(3.805369639840E0,1.132816184598E1,0.E0));
#33=DIRECTION('',(0.E0,0.E0,1.E0));
#34=DIRECTION('',(7.071067811865E-1,-7.071067811866E-1,0.E0));
#35=AXIS2_PLACEMENT_3D('',#32,#33,#34);
#37=CARTESIAN_POINT('',(4.441765742908E0,0.E0,0.E0));
#38=DIRECTION('',(1.E0,0.E0,0.E0));
#39=DIRECTION('',(0.E0,1.E0,0.E0));
#40=AXIS2_PLACEMENT_3D('',#37,#38,#39);
#42=CARTESIAN_POINT('',(4.E0,0.E0,0.E0));
#43=DIRECTION('',(1.E0,0.E0,0.E0));
#44=DIRECTION('',(0.E0,1.E0,0.E0));
#45=AXIS2_PLACEMENT_3D('',#42,#43,#44);
#47=CARTESIAN_POINT('',(4.676230373451E0,0.E0,0.E0));
#48=DIRECTION('',(1.E0,0.E0,0.E0));
#49=DIRECTION('',(0.E0,1.E0,0.E0));
#50=AXIS2_PLACEMENT_3D('',#47,#48,#49);
#52=CARTESIAN_POINT('',(-5.E0,-1.3625E1,0.E0));
#53=DIRECTION('',(0.E0,0.E0,1.E0));
#54=DIRECTION('',(9.676230373451E-1,-2.523997971455E-1,0.E0));
#55=AXIS2_PLACEMENT_3D('',#52,#53,#54);
#57=CARTESIAN_POINT('',(4.676230373451E0,0.E0,0.E0));
#58=DIRECTION('',(-1.E0,0.E0,0.E0));
#59=DIRECTION('',(0.E0,-1.E0,0.E0));
#60=AXIS2_PLACEMENT_3D('',#57,#58,#59);
#62=CARTESIAN_POINT('',(-5.E0,1.3625E1,0.E0));
#63=DIRECTION('',(0.E0,0.E0,-1.E0));
#64=DIRECTION('',(9.676230373451E-1,2.523997971455E-1,0.E0));
#65=AXIS2_PLACEMENT_3D('',#62,#63,#64);
#67=CARTESIAN_POINT('',(4.676230373451E0,0.E0,0.E0));
#68=DIRECTION('',(1.E0,0.E0,0.E0));
#69=DIRECTION('',(0.E0,-1.E0,0.E0));
#70=AXIS2_PLACEMENT_3D('',#67,#68,#69);
#72=CARTESIAN_POINT('',(4.676230373451E0,0.E0,0.E0));
#73=DIRECTION('',(-1.E0,0.E0,0.E0));
#74=DIRECTION('',(0.E0,1.E0,0.E0));
#75=AXIS2_PLACEMENT_3D('',#72,#73,#74);
#77=CARTESIAN_POINT('',(3.805369639840E0,1.592183815402E1,0.E0));
#78=DIRECTION('',(0.E0,0.E0,-1.E0));
#79=DIRECTION('',(7.071067811865E-1,7.071067811866E-1,0.E0));
#80=AXIS2_PLACEMENT_3D('',#77,#78,#79);
#82=CARTESIAN_POINT('',(4.441765742908E0,0.E0,0.E0));
#83=DIRECTION('',(-1.E0,0.E0,0.E0));
#84=DIRECTION('',(0.E0,1.E0,0.E0));
#85=AXIS2_PLACEMENT_3D('',#82,#83,#84);
#87=DIRECTION('',(7.071067811865E-1,-7.071067811866E-1,0.E0));
#88=VECTOR('',#87,6.247511050125E-1);
#89=CARTESIAN_POINT('',(4.E0,1.7E1,0.E0));
#90=LINE('',#89,#88);
#91=CARTESIAN_POINT('',(4.E0,0.E0,0.E0));
#92=DIRECTION('',(-1.E0,0.E0,0.E0));
#93=DIRECTION('',(0.E0,1.E0,0.E0));
#94=AXIS2_PLACEMENT_3D('',#91,#92,#93);
#96=DIRECTION('',(7.071067811865E-1,7.071067811866E-1,5.984344647963E-14));
#97=VECTOR('',#96,6.247511050125E-1);
#98=CARTESIAN_POINT('',(4.E0,-1.7E1,1.623157617734E-14));
#99=LINE('',#98,#97);
#100=CARTESIAN_POINT('',(4.441765742908E0,0.E0,0.E0));
#101=DIRECTION('',(-1.E0,0.E0,0.E0));
#102=DIRECTION('',(0.E0,-1.E0,0.E0));
#103=AXIS2_PLACEMENT_3D('',#100,#101,#102);
#105=CARTESIAN_POINT('',(4.E0,0.E0,0.E0));
#106=DIRECTION('',(1.E0,0.E0,0.E0));
#107=DIRECTION('',(0.E0,1.E0,0.E0));
#108=AXIS2_PLACEMENT_3D('',#105,#106,#107);
#110=CARTESIAN_POINT('',(3.805369639840E0,-1.592183815402E1,
7.481168462498E-14));
#111=DIRECTION('',(0.E0,0.E0,1.E0));
#112=DIRECTION('',(7.071067811865E-1,-7.071067811866E-1,0.E0));
#113=AXIS2_PLACEMENT_3D('',#110,#111,#112);
#115=DIRECTION('',(-1.E0,0.E0,0.E0));
#116=VECTOR('',#115,8.E0);
#117=CARTESIAN_POINT('',(4.E0,1.7E1,0.E0));
#118=LINE('',#117,#116);
#119=DIRECTION('',(-1.E0,0.E0,0.E0));
#120=VECTOR('',#119,8.E0);
#121=CARTESIAN_POINT('',(4.E0,-1.7E1,1.623157617734E-14));
#122=LINE('',#121,#120);
#123=CARTESIAN_POINT('',(-4.441765742908E0,0.E0,0.E0));
#124=DIRECTION('',(1.E0,0.E0,0.E0));
#125=DIRECTION('',(0.E0,-1.E0,0.E0));
#126=AXIS2_PLACEMENT_3D('',#123,#124,#125);
#128=DIRECTION('',(7.071067811865E-1,-7.071067811865E-1,-5.813571176851E-14));
#129=VECTOR('',#128,6.247511050125E-1);
#130=CARTESIAN_POINT('',(-4.441765742908E0,-1.655823425709E1,
5.255192634540E-14));
#131=LINE('',#130,#129);
#132=CARTESIAN_POINT('',(-4.E0,0.E0,0.E0));
#133=DIRECTION('',(-1.E0,0.E0,0.E0));
#134=DIRECTION('',(0.E0,1.E0,0.E0));
#135=AXIS2_PLACEMENT_3D('',#132,#133,#134);
#137=DIRECTION('',(7.071067811865E-1,7.071067811865E-1,0.E0));
#138=VECTOR('',#137,6.247511050125E-1);
#139=CARTESIAN_POINT('',(-4.441765742908E0,1.655823425709E1,0.E0));
#140=LINE('',#139,#138);
#141=CARTESIAN_POINT('',(-3.805369639840E0,-1.592183815402E1,
8.094913628298E-14));
#142=DIRECTION('',(0.E0,0.E0,-1.E0));
#143=DIRECTION('',(-7.071067811865E-1,-7.071067811865E-1,0.E0));
#144=AXIS2_PLACEMENT_3D('',#141,#142,#143);
#146=CARTESIAN_POINT('',(-3.805369639840E0,1.592183815402E1,0.E0));
#147=DIRECTION('',(0.E0,0.E0,1.E0));
#148=DIRECTION('',(-7.071067811865E-1,7.071067811865E-1,0.E0));
#149=AXIS2_PLACEMENT_3D('',#146,#147,#148);
#151=CARTESIAN_POINT('',(-4.441765742908E0,0.E0,0.E0));
#152=DIRECTION('',(1.E0,0.E0,0.E0));
#153=DIRECTION('',(0.E0,1.E0,0.E0));
#154=AXIS2_PLACEMENT_3D('',#151,#152,#153);
#156=CARTESIAN_POINT('',(-4.E0,0.E0,0.E0));
#157=DIRECTION('',(1.E0,0.E0,0.E0));
#158=DIRECTION('',(0.E0,1.E0,0.E0));
#159=AXIS2_PLACEMENT_3D('',#156,#157,#158);
#161=CARTESIAN_POINT('',(-4.676230373451E0,0.E0,0.E0));
#162=DIRECTION('',(1.E0,0.E0,0.E0));
#163=DIRECTION('',(0.E0,1.E0,0.E0));
#164=AXIS2_PLACEMENT_3D('',#161,#162,#163);
#166=CARTESIAN_POINT('',(5.E0,-1.3625E1,0.E0));
#167=DIRECTION('',(0.E0,0.E0,-1.E0));
#168=DIRECTION('',(-9.676230373451E-1,-2.523997971455E-1,0.E0));
#169=AXIS2_PLACEMENT_3D('',#166,#167,#168);
#171=CARTESIAN_POINT('',(-4.676230373451E0,0.E0,0.E0));
#172=DIRECTION('',(-1.E0,0.E0,0.E0));
#173=DIRECTION('',(0.E0,-1.E0,0.E0));
#174=AXIS2_PLACEMENT_3D('',#171,#172,#173);
#176=CARTESIAN_POINT('',(5.E0,1.3625E1,0.E0));
#177=DIRECTION('',(0.E0,0.E0,1.E0));
#178=DIRECTION('',(-9.676230373451E-1,2.523997971455E-1,0.E0));
#179=AXIS2_PLACEMENT_3D('',#176,#177,#178);
#181=CARTESIAN_POINT('',(-4.676230373451E0,0.E0,0.E0));
#182=DIRECTION('',(1.E0,0.E0,0.E0));
#183=DIRECTION('',(0.E0,-1.E0,0.E0));
#184=AXIS2_PLACEMENT_3D('',#181,#182,#183);
#186=CARTESIAN_POINT('',(-4.676230373451E0,0.E0,0.E0));
#187=DIRECTION('',(-1.E0,0.E0,0.E0));
#188=DIRECTION('',(0.E0,1.E0,0.E0));
#189=AXIS2_PLACEMENT_3D('',#186,#187,#188);
#191=CARTESIAN_POINT('',(-3.805369639840E0,1.132816184598E1,0.E0));
#192=DIRECTION('',(0.E0,0.E0,-1.E0));
#193=DIRECTION('',(-7.071067811865E-1,-7.071067811865E-1,0.E0));
#194=AXIS2_PLACEMENT_3D('',#191,#192,#193);
#196=CARTESIAN_POINT('',(-4.441765742908E0,0.E0,0.E0));
#197=DIRECTION('',(-1.E0,0.E0,0.E0));
#198=DIRECTION('',(0.E0,1.E0,0.E0));
#199=AXIS2_PLACEMENT_3D('',#196,#197,#198);
#201=DIRECTION('',(-7.071067811865E-1,7.071067811865E-1,0.E0));
#202=VECTOR('',#201,6.247511050125E-1);
#203=CARTESIAN_POINT('',(-4.E0,1.025E1,0.E0));
#204=LINE('',#203,#202);
#205=CARTESIAN_POINT('',(-4.E0,0.E0,0.E0));
#206=DIRECTION('',(-1.E0,0.E0,0.E0));
#207=DIRECTION('',(0.E0,1.E0,0.E0));
#208=AXIS2_PLACEMENT_3D('',#205,#206,#207);
#210=DIRECTION('',(-7.071067811865E-1,-7.071067811865E-1,6.396145639282E-14));
#211=VECTOR('',#210,6.247511050125E-1);
#212=CARTESIAN_POINT('',(-4.E0,-1.025E1,1.134849855833E-13));
#213=LINE('',#212,#211);
#214=CARTESIAN_POINT('',(-4.441765742908E0,0.E0,0.E0));
#215=DIRECTION('',(-1.E0,0.E0,0.E0));
#216=DIRECTION('',(0.E0,-1.E0,1.162234644902E-14));
#217=AXIS2_PLACEMENT_3D('',#214,#215,#216);
#219=CARTESIAN_POINT('',(-4.E0,0.E0,0.E0));
#220=DIRECTION('',(1.E0,0.E0,0.E0));
#221=DIRECTION('',(0.E0,1.E0,0.E0));
#222=AXIS2_PLACEMENT_3D('',#219,#220,#221);
#224=CARTESIAN_POINT('',(-3.805369639840E0,-1.132816184598E1,
2.026159188345E-13));
#225=DIRECTION('',(0.E0,1.788605613444E-14,1.E0));
#226=DIRECTION('',(-7.071067811865E-1,7.071067811865E-1,-1.264735158135E-14));
#227=AXIS2_PLACEMENT_3D('',#224,#225,#226);
#229=CARTESIAN_POINT('',(4.E0,1.7E1,0.E0));
#230=CARTESIAN_POINT('',(4.E0,-1.7E1,0.E0));
#231=VERTEX_POINT('',#229);
#232=VERTEX_POINT('',#230);
#233=CARTESIAN_POINT('',(4.E0,1.025E1,0.E0));
#234=CARTESIAN_POINT('',(4.E0,-1.025E1,0.E0));
#235=VERTEX_POINT('',#233);
#236=VERTEX_POINT('',#234);
#237=CARTESIAN_POINT('',(-4.E0,1.025E1,0.E0));
#238=CARTESIAN_POINT('',(-4.E0,-1.025E1,0.E0));
#239=VERTEX_POINT('',#237);
#240=VERTEX_POINT('',#238);
#241=CARTESIAN_POINT('',(-4.E0,1.7E1,0.E0));
#242=CARTESIAN_POINT('',(-4.E0,-1.7E1,0.E0));
#243=VERTEX_POINT('',#241);
#244=VERTEX_POINT('',#242);
#245=CARTESIAN_POINT('',(4.441765742908E0,1.069176574291E1,0.E0));
#246=CARTESIAN_POINT('',(4.441765742908E0,-1.069176574291E1,
1.234505428174E-13));
#247=VERTEX_POINT('',#245);
#248=VERTEX_POINT('',#246);
#249=CARTESIAN_POINT('',(4.676230373451E0,1.110100202855E1,0.E0));
#250=CARTESIAN_POINT('',(4.676230373451E0,-1.110100202855E1,0.E0));
#251=VERTEX_POINT('',#249);
#252=VERTEX_POINT('',#250);
#253=CARTESIAN_POINT('',(4.441765742908E0,-1.655823425709E1,
3.448479005076E-14));
#254=CARTESIAN_POINT('',(4.441765742908E0,1.655823425709E1,0.E0));
#255=VERTEX_POINT('',#253);
#256=VERTEX_POINT('',#254);
#257=CARTESIAN_POINT('',(4.676230373451E0,-1.614899797146E1,0.E0));
#258=CARTESIAN_POINT('',(4.676230373451E0,1.614899797146E1,0.E0));
#259=VERTEX_POINT('',#257);
#260=VERTEX_POINT('',#258);
#261=CARTESIAN_POINT('',(-4.441765742908E0,-1.655823425709E1,
2.535773495448E-14));
#262=CARTESIAN_POINT('',(-4.441765742908E0,1.655823425709E1,0.E0));
#263=VERTEX_POINT('',#261);
#264=VERTEX_POINT('',#262);
#265=CARTESIAN_POINT('',(-4.676230373451E0,-1.614899797146E1,0.E0));
#266=CARTESIAN_POINT('',(-4.676230373451E0,1.614899797146E1,0.E0));
#267=VERTEX_POINT('',#265);
#268=VERTEX_POINT('',#266);
#269=CARTESIAN_POINT('',(-4.441765742908E0,-1.069176574291E1,
1.242634056158E-13));
#270=CARTESIAN_POINT('',(-4.441765742908E0,1.069176574291E1,0.E0));
#271=VERTEX_POINT('',#269);
#272=VERTEX_POINT('',#270);
#273=CARTESIAN_POINT('',(-4.676230373451E0,-1.110100202855E1,0.E0));
#274=CARTESIAN_POINT('',(-4.676230373451E0,1.110100202855E1,0.E0));
#275=VERTEX_POINT('',#273);
#276=VERTEX_POINT('',#274);
#277=CARTESIAN_POINT('',(-5.5E0,0.E0,0.E0));
#278=DIRECTION('',(1.E0,0.E0,0.E0));
#279=DIRECTION('',(0.E0,-1.E0,0.E0));
#280=AXIS2_PLACEMENT_3D('',#277,#278,#279);
#281=CYLINDRICAL_SURFACE('',#280,1.025E1);
#283=ORIENTED_EDGE('',*,*,#282,.F.);
#285=ORIENTED_EDGE('',*,*,#284,.T.);
#287=ORIENTED_EDGE('',*,*,#286,.T.);
#289=ORIENTED_EDGE('',*,*,#288,.F.);
#290=EDGE_LOOP('',(#283,#285,#287,#289));
#291=FACE_OUTER_BOUND('',#290,.F.);
#292=ADVANCED_FACE('',(#291),#281,.F.);
#293=CARTESIAN_POINT('',(-5.5E0,0.E0,0.E0));
#294=DIRECTION('',(1.E0,0.E0,0.E0));
#295=DIRECTION('',(0.E0,-1.E0,0.E0));
#296=AXIS2_PLACEMENT_3D('',#293,#294,#295);
#297=CYLINDRICAL_SURFACE('',#296,1.025E1);
#298=ORIENTED_EDGE('',*,*,#282,.T.);
#300=ORIENTED_EDGE('',*,*,#299,.T.);
#301=ORIENTED_EDGE('',*,*,#286,.F.);
#303=ORIENTED_EDGE('',*,*,#302,.F.);
#304=EDGE_LOOP('',(#298,#300,#301,#303));
#305=FACE_OUTER_BOUND('',#304,.F.);
#306=ADVANCED_FACE('',(#305),#297,.F.);
#307=CARTESIAN_POINT('',(4.220882871497E0,0.E0,0.E0));
#308=DIRECTION('',(1.E0,0.E0,0.E0));
#309=DIRECTION('',(0.E0,-1.E0,0.E0));
#310=AXIS2_PLACEMENT_3D('',#307,#308,#309);
#311=CONICAL_SURFACE('',#310,1.047088287150E1,4.5E1);
#313=ORIENTED_EDGE('',*,*,#312,.F.);
#315=ORIENTED_EDGE('',*,*,#314,.T.);
#316=ORIENTED_EDGE('',*,*,#299,.F.);
#318=ORIENTED_EDGE('',*,*,#317,.F.);
#319=EDGE_LOOP('',(#313,#315,#316,#318));
#320=FACE_OUTER_BOUND('',#319,.F.);
#321=ADVANCED_FACE('',(#320),#311,.F.);
#322=CARTESIAN_POINT('',(3.805369639840E0,0.E0,0.E0));
#323=DIRECTION('',(1.E0,0.E0,0.E0));
#324=DIRECTION('',(0.E0,-9.999999883402E-1,1.527072548808E-4));
#325=AXIS2_PLACEMENT_3D('',#322,#323,#324);
#326=TOROIDAL_SURFACE('',#325,1.132816184598E1,9.E-1);
#327=ORIENTED_EDGE('',*,*,#312,.T.);
#329=ORIENTED_EDGE('',*,*,#328,.T.);
#331=ORIENTED_EDGE('',*,*,#330,.F.);
#333=ORIENTED_EDGE('',*,*,#332,.F.);
#334=EDGE_LOOP('',(#327,#329,#331,#333));
#335=FACE_OUTER_BOUND('',#334,.F.);
#336=ADVANCED_FACE('',(#335),#326,.T.);
#337=CARTESIAN_POINT('',(3.805369639840E0,0.E0,0.E0));
#338=DIRECTION('',(1.E0,0.E0,0.E0));
#339=DIRECTION('',(0.E0,9.999999883402E-1,-1.527072548370E-4));
#340=AXIS2_PLACEMENT_3D('',#337,#338,#339);
#341=TOROIDAL_SURFACE('',#340,1.132816184598E1,9.E-1);
#343=ORIENTED_EDGE('',*,*,#342,.T.);
#344=ORIENTED_EDGE('',*,*,#332,.T.);
#346=ORIENTED_EDGE('',*,*,#345,.F.);
#347=ORIENTED_EDGE('',*,*,#328,.F.);
#348=EDGE_LOOP('',(#343,#344,#346,#347));
#349=FACE_OUTER_BOUND('',#348,.F.);
#350=ADVANCED_FACE('',(#349),#341,.T.);
#351=CARTESIAN_POINT('',(4.220882871497E0,0.E0,0.E0));
#352=DIRECTION('',(1.E0,0.E0,0.E0));
#353=DIRECTION('',(0.E0,-1.E0,0.E0));
#354=AXIS2_PLACEMENT_3D('',#351,#352,#353);
#355=CONICAL_SURFACE('',#354,1.047088287150E1,4.5E1);
#356=ORIENTED_EDGE('',*,*,#342,.F.);
#357=ORIENTED_EDGE('',*,*,#317,.T.);
#358=ORIENTED_EDGE('',*,*,#288,.T.);
#359=ORIENTED_EDGE('',*,*,#314,.F.);
#360=EDGE_LOOP('',(#356,#357,#358,#359));
#361=FACE_OUTER_BOUND('',#360,.F.);
#362=ADVANCED_FACE('',(#361),#355,.F.);
#363=CARTESIAN_POINT('',(-5.E0,0.E0,0.E0));
#364=DIRECTION('',(-1.E0,0.E0,0.E0));
#365=DIRECTION('',(0.E0,1.E0,0.E0));
#366=AXIS2_PLACEMENT_3D('',#363,#364,#365);
#367=TOROIDAL_SURFACE('',#366,1.3625E1,1.E1);
#368=ORIENTED_EDGE('',*,*,#345,.T.);
#370=ORIENTED_EDGE('',*,*,#369,.F.);
#372=ORIENTED_EDGE('',*,*,#371,.T.);
#374=ORIENTED_EDGE('',*,*,#373,.T.);
#375=EDGE_LOOP('',(#368,#370,#372,#374));
#376=FACE_OUTER_BOUND('',#375,.F.);
#377=ADVANCED_FACE('',(#376),#367,.T.);
#378=CARTESIAN_POINT('',(-5.E0,0.E0,0.E0));
#379=DIRECTION('',(-1.E0,0.E0,0.E0));
#380=DIRECTION('',(0.E0,1.E0,0.E0));
#381=AXIS2_PLACEMENT_3D('',#378,#379,#380);
#382=TOROIDAL_SURFACE('',#381,1.3625E1,1.E1);
#383=ORIENTED_EDGE('',*,*,#330,.T.);
#384=ORIENTED_EDGE('',*,*,#373,.F.);
#386=ORIENTED_EDGE('',*,*,#385,.T.);
#387=ORIENTED_EDGE('',*,*,#369,.T.);
#388=EDGE_LOOP('',(#383,#384,#386,#387));
#389=FACE_OUTER_BOUND('',#388,.F.);
#390=ADVANCED_FACE('',(#389),#382,.T.);
#391=CARTESIAN_POINT('',(3.805369639840E0,0.E0,0.E0));
#392=DIRECTION('',(1.E0,0.E0,0.E0));
#393=DIRECTION('',(0.E0,9.999999960785E-1,8.856116502924E-5));
#394=AXIS2_PLACEMENT_3D('',#391,#392,#393);
#395=TOROIDAL_SURFACE('',#394,1.592183815402E1,9.E-1);
#397=ORIENTED_EDGE('',*,*,#396,.T.);
#399=ORIENTED_EDGE('',*,*,#398,.T.);
#400=ORIENTED_EDGE('',*,*,#385,.F.);
#402=ORIENTED_EDGE('',*,*,#401,.F.);
#403=EDGE_LOOP('',(#397,#399,#400,#402));
#404=FACE_OUTER_BOUND('',#403,.F.);
#405=ADVANCED_FACE('',(#404),#395,.T.);
#406=CARTESIAN_POINT('',(4.220882871470E0,0.E0,0.E0));
#407=DIRECTION('',(-1.E0,0.E0,0.E0));
#408=DIRECTION('',(0.E0,1.E0,0.E0));
#409=AXIS2_PLACEMENT_3D('',#406,#407,#408);
#410=CONICAL_SURFACE('',#409,1.677911712853E1,4.5E1);
#411=ORIENTED_EDGE('',*,*,#396,.F.);
#413=ORIENTED_EDGE('',*,*,#412,.F.);
#415=ORIENTED_EDGE('',*,*,#414,.T.);
#417=ORIENTED_EDGE('',*,*,#416,.T.);
#418=EDGE_LOOP('',(#411,#413,#415,#417));
#419=FACE_OUTER_BOUND('',#418,.F.);
#420=ADVANCED_FACE('',(#419),#410,.T.);
#421=CARTESIAN_POINT('',(4.220882871470E0,0.E0,0.E0));
#422=DIRECTION('',(-1.E0,0.E0,0.E0));
#423=DIRECTION('',(0.E0,1.E0,0.E0));
#424=AXIS2_PLACEMENT_3D('',#421,#422,#423);
#425=CONICAL_SURFACE('',#424,1.677911712853E1,4.5E1);
#427=ORIENTED_EDGE('',*,*,#426,.F.);
#428=ORIENTED_EDGE('',*,*,#416,.F.);
#430=ORIENTED_EDGE('',*,*,#429,.F.);
#431=ORIENTED_EDGE('',*,*,#412,.T.);
#432=EDGE_LOOP('',(#427,#428,#430,#431));
#433=FACE_OUTER_BOUND('',#432,.F.);
#434=ADVANCED_FACE('',(#433),#425,.T.);
#435=CARTESIAN_POINT('',(3.805369639840E0,0.E0,0.E0));
#436=DIRECTION('',(1.E0,0.E0,0.E0));
#437=DIRECTION('',(0.E0,-9.999999960785E-1,-8.856116503552E-5));
#438=AXIS2_PLACEMENT_3D('',#435,#436,#437);
#439=TOROIDAL_SURFACE('',#438,1.592183815402E1,9.E-1);
#440=ORIENTED_EDGE('',*,*,#426,.T.);
#441=ORIENTED_EDGE('',*,*,#401,.T.);
#442=ORIENTED_EDGE('',*,*,#371,.F.);
#443=ORIENTED_EDGE('',*,*,#398,.F.);
#444=EDGE_LOOP('',(#440,#441,#442,#443));
#445=FACE_OUTER_BOUND('',#444,.F.);
#446=ADVANCED_FACE('',(#445),#439,.T.);
#447=CARTESIAN_POINT('',(-5.5E0,0.E0,0.E0));
#448=DIRECTION('',(1.E0,0.E0,0.E0));
#449=DIRECTION('',(0.E0,-1.E0,0.E0));
#450=AXIS2_PLACEMENT_3D('',#447,#448,#449);
#451=CYLINDRICAL_SURFACE('',#450,1.7E1);
#453=ORIENTED_EDGE('',*,*,#452,.F.);
#454=ORIENTED_EDGE('',*,*,#429,.T.);
#456=ORIENTED_EDGE('',*,*,#455,.T.);
#458=ORIENTED_EDGE('',*,*,#457,.F.);
#459=EDGE_LOOP('',(#453,#454,#456,#458));
#460=FACE_OUTER_BOUND('',#459,.F.);
#461=ADVANCED_FACE('',(#460),#451,.T.);
#462=CARTESIAN_POINT('',(-5.5E0,0.E0,0.E0));
#463=DIRECTION('',(1.E0,0.E0,0.E0));
#464=DIRECTION('',(0.E0,-1.E0,0.E0));
#465=AXIS2_PLACEMENT_3D('',#462,#463,#464);
#466=CYLINDRICAL_SURFACE('',#465,1.7E1);
#467=ORIENTED_EDGE('',*,*,#452,.T.);
#469=ORIENTED_EDGE('',*,*,#468,.T.);
#470=ORIENTED_EDGE('',*,*,#455,.F.);
#471=ORIENTED_EDGE('',*,*,#414,.F.);
#472=EDGE_LOOP('',(#467,#469,#470,#471));
#473=FACE_OUTER_BOUND('',#472,.F.);
#474=ADVANCED_FACE('',(#473),#466,.T.);
#475=CARTESIAN_POINT('',(-4.220882871470E0,0.E0,0.E0));
#476=DIRECTION('',(1.E0,0.E0,0.E0));
#477=DIRECTION('',(0.E0,-1.E0,0.E0));
#478=AXIS2_PLACEMENT_3D('',#475,#476,#477);
#479=CONICAL_SURFACE('',#478,1.677911712853E1,4.5E1);
#481=ORIENTED_EDGE('',*,*,#480,.F.);
#483=ORIENTED_EDGE('',*,*,#482,.T.);
#484=ORIENTED_EDGE('',*,*,#468,.F.);
#486=ORIENTED_EDGE('',*,*,#485,.F.);
#487=EDGE_LOOP('',(#481,#483,#484,#486));
#488=FACE_OUTER_BOUND('',#487,.F.);
#489=ADVANCED_FACE('',(#488),#479,.T.);
#490=CARTESIAN_POINT('',(-3.805369639840E0,0.E0,0.E0));
#491=DIRECTION('',(1.E0,0.E0,0.E0));
#492=DIRECTION('',(0.E0,-9.999999953394E-1,9.654683617453E-5));
#493=AXIS2_PLACEMENT_3D('',#490,#491,#492);
#494=TOROIDAL_SURFACE('',#493,1.592183815402E1,9.E-1);
#495=ORIENTED_EDGE('',*,*,#480,.T.);
#497=ORIENTED_EDGE('',*,*,#496,.T.);
#499=ORIENTED_EDGE('',*,*,#498,.F.);
#501=ORIENTED_EDGE('',*,*,#500,.F.);
#502=EDGE_LOOP('',(#495,#497,#499,#501));
#503=FACE_OUTER_BOUND('',#502,.F.);
#504=ADVANCED_FACE('',(#503),#494,.T.);
#505=CARTESIAN_POINT('',(-3.805369639840E0,0.E0,0.E0));
#506=DIRECTION('',(1.E0,0.E0,0.E0));
#507=DIRECTION('',(0.E0,9.999999953394E-1,-9.654683616399E-5));
#508=AXIS2_PLACEMENT_3D('',#505,#506,#507);
#509=TOROIDAL_SURFACE('',#508,1.592183815402E1,9.E-1);
#511=ORIENTED_EDGE('',*,*,#510,.T.);
#512=ORIENTED_EDGE('',*,*,#500,.T.);
#514=ORIENTED_EDGE('',*,*,#513,.F.);
#515=ORIENTED_EDGE('',*,*,#496,.F.);
#516=EDGE_LOOP('',(#511,#512,#514,#515));
#517=FACE_OUTER_BOUND('',#516,.F.);
#518=ADVANCED_FACE('',(#517),#509,.T.);
#519=CARTESIAN_POINT('',(-4.220882871470E0,0.E0,0.E0));
#520=DIRECTION('',(1.E0,0.E0,0.E0));
#521=DIRECTION('',(0.E0,-1.E0,0.E0));
#522=AXIS2_PLACEMENT_3D('',#519,#520,#521);
#523=CONICAL_SURFACE('',#522,1.677911712853E1,4.5E1);
#524=ORIENTED_EDGE('',*,*,#510,.F.);
#525=ORIENTED_EDGE('',*,*,#485,.T.);
#526=ORIENTED_EDGE('',*,*,#457,.T.);
#527=ORIENTED_EDGE('',*,*,#482,.F.);
#528=EDGE_LOOP('',(#524,#525,#526,#527));
#529=FACE_OUTER_BOUND('',#528,.F.);
#530=ADVANCED_FACE('',(#529),#523,.T.);
#531=CARTESIAN_POINT('',(5.E0,0.E0,0.E0));
#532=DIRECTION('',(-1.E0,0.E0,0.E0));
#533=DIRECTION('',(0.E0,1.E0,0.E0));
#534=AXIS2_PLACEMENT_3D('',#531,#532,#533);
#535=TOROIDAL_SURFACE('',#534,1.3625E1,1.E1);
#536=ORIENTED_EDGE('',*,*,#513,.T.);
#538=ORIENTED_EDGE('',*,*,#537,.T.);
#540=ORIENTED_EDGE('',*,*,#539,.T.);
#542=ORIENTED_EDGE('',*,*,#541,.F.);
#543=EDGE_LOOP('',(#536,#538,#540,#542));
#544=FACE_OUTER_BOUND('',#543,.F.);
#545=ADVANCED_FACE('',(#544),#535,.T.);
#546=CARTESIAN_POINT('',(5.E0,0.E0,0.E0));
#547=DIRECTION('',(-1.E0,0.E0,0.E0));
#548=DIRECTION('',(0.E0,1.E0,0.E0));
#549=AXIS2_PLACEMENT_3D('',#546,#547,#548);
#550=TOROIDAL_SURFACE('',#549,1.3625E1,1.E1);
#551=ORIENTED_EDGE('',*,*,#498,.T.);
#552=ORIENTED_EDGE('',*,*,#541,.T.);
#554=ORIENTED_EDGE('',*,*,#553,.T.);
#555=ORIENTED_EDGE('',*,*,#537,.F.);
#556=EDGE_LOOP('',(#551,#552,#554,#555));
#557=FACE_OUTER_BOUND('',#556,.F.);
#558=ADVANCED_FACE('',(#557),#550,.T.);
#559=CARTESIAN_POINT('',(-3.805369639840E0,0.E0,0.E0));
#560=DIRECTION('',(1.E0,0.E0,0.E0));
#561=DIRECTION('',(0.E0,9.999999936316E-1,1.128572474668E-4));
#562=AXIS2_PLACEMENT_3D('',#559,#560,#561);
#563=TOROIDAL_SURFACE('',#562,1.132816184598E1,9.E-1);
#565=ORIENTED_EDGE('',*,*,#564,.T.);
#567=ORIENTED_EDGE('',*,*,#566,.T.);
#568=ORIENTED_EDGE('',*,*,#553,.F.);
#570=ORIENTED_EDGE('',*,*,#569,.F.);
#571=EDGE_LOOP('',(#565,#567,#568,#570));
#572=FACE_OUTER_BOUND('',#571,.F.);
#573=ADVANCED_FACE('',(#572),#563,.T.);
#574=CARTESIAN_POINT('',(-4.220882871497E0,0.E0,0.E0));
#575=DIRECTION('',(-1.E0,0.E0,0.E0));
#576=DIRECTION('',(0.E0,1.E0,0.E0));
#577=AXIS2_PLACEMENT_3D('',#574,#575,#576);
#578=CONICAL_SURFACE('',#577,1.047088287150E1,4.5E1);
#579=ORIENTED_EDGE('',*,*,#564,.F.);
#581=ORIENTED_EDGE('',*,*,#580,.F.);
#582=ORIENTED_EDGE('',*,*,#302,.T.);
#584=ORIENTED_EDGE('',*,*,#583,.T.);
#585=EDGE_LOOP('',(#579,#581,#582,#584));
#586=FACE_OUTER_BOUND('',#585,.F.);
#587=ADVANCED_FACE('',(#586),#578,.F.);
#588=CARTESIAN_POINT('',(-4.220882871497E0,0.E0,0.E0));
#589=DIRECTION('',(-1.E0,0.E0,0.E0));
#590=DIRECTION('',(0.E0,1.E0,0.E0));
#591=AXIS2_PLACEMENT_3D('',#588,#589,#590);
#592=CONICAL_SURFACE('',#591,1.047088287150E1,4.5E1);
#594=ORIENTED_EDGE('',*,*,#593,.F.);
#595=ORIENTED_EDGE('',*,*,#583,.F.);
#596=ORIENTED_EDGE('',*,*,#284,.F.);
#597=ORIENTED_EDGE('',*,*,#580,.T.);
#598=EDGE_LOOP('',(#594,#595,#596,#597));
#599=FACE_OUTER_BOUND('',#598,.F.);
#600=ADVANCED_FACE('',(#599),#592,.F.);
#601=CARTESIAN_POINT('',(-3.805369639840E0,0.E0,0.E0));
#602=DIRECTION('',(1.E0,0.E0,0.E0));
#603=DIRECTION('',(0.E0,-9.999999936316E-1,-1.128572474666E-4));
#604=AXIS2_PLACEMENT_3D('',#601,#602,#603);
#605=TOROIDAL_SURFACE('',#604,1.132816184598E1,9.E-1);
#606=ORIENTED_EDGE('',*,*,#593,.T.);
#607=ORIENTED_EDGE('',*,*,#569,.T.);
#608=ORIENTED_EDGE('',*,*,#539,.F.);
#609=ORIENTED_EDGE('',*,*,#566,.F.);
#610=EDGE_LOOP('',(#606,#607,#608,#609));
#611=FACE_OUTER_BOUND('',#610,.F.);
#612=ADVANCED_FACE('',(#611),#605,.T.);
#613=CLOSED_SHELL('',(#292,#306,#321,#336,#350,#362,#377,#390,#405,#420,#434,
#446,#461,#474,#489,#504,#518,#530,#545,#558,#573,#587,#600,#612));
#614=MANIFOLD_SOLID_BREP('',#613);
#616=DIMENSIONAL_EXPONENTS(0.E0,0.E0,0.E0,0.E0,0.E0,0.E0,0.E0);
#618=PLANE_ANGLE_MEASURE_WITH_UNIT(PLANE_ANGLE_MEASURE(1.745329251994E-2),#617);
#619=(CONVERSION_BASED_UNIT('DEGREE',#618)NAMED_UNIT(*)PLANE_ANGLE_UNIT());
#621=UNCERTAINTY_MEASURE_WITH_UNIT(LENGTH_MEASURE(1.E-4),#615,'closure',
'Maximum model space distance between geometric entities at asserted connectivities');
#622=(GEOMETRIC_REPRESENTATION_CONTEXT(3)GLOBAL_UNCERTAINTY_ASSIGNED_CONTEXT((
#621))GLOBAL_UNIT_ASSIGNED_CONTEXT((#615,#619,#620))REPRESENTATION_CONTEXT
('ID1','3'));
#624=APPLICATION_CONTEXT(
'CONFIGURATION CONTROLLED 3D DESIGNS OF MECHANICAL PARTS AND ASSEMBLIES');
#625=APPLICATION_PROTOCOL_DEFINITION('international standard',
'config_control_design',1994,#624);
#626=DESIGN_CONTEXT('',#624,'design');
#627=MECHANICAL_CONTEXT('',#624,'mechanical');
#628=PRODUCT('C61020-A0045-C010-03-7606','C61020-A0045-C010-03-7606',
'NOT SPECIFIED',(#627));
#629=PRODUCT_DEFINITION_FORMATION_WITH_SPECIFIED_SOURCE('4','LAST_VERSION',#628,
.MADE.);
#633=PRODUCT_CATEGORY('part','');
#634=PRODUCT_RELATED_PRODUCT_CATEGORY('detail','',(#628));
#635=PRODUCT_CATEGORY_RELATIONSHIP('','',#633,#634);
#636=SECURITY_CLASSIFICATION_LEVEL('unclassified');
#637=SECURITY_CLASSIFICATION('','',#636);
#638=CC_DESIGN_SECURITY_CLASSIFICATION(#637,(#629));
#639=APPROVAL_STATUS('approved');
#640=APPROVAL(#639,'');
#641=CC_DESIGN_APPROVAL(#640,(#637,#629,#630));
#642=CALENDAR_DATE(118,11,6);
#643=COORDINATED_UNIVERSAL_TIME_OFFSET(2,0,.AHEAD.);
#644=LOCAL_TIME(7,36,2.2E1,#643);
#645=DATE_AND_TIME(#642,#644);
#646=APPROVAL_DATE_TIME(#645,#640);
#647=DATE_TIME_ROLE('creation_date');
#648=CC_DESIGN_DATE_AND_TIME_ASSIGNMENT(#645,#647,(#630));
#649=DATE_TIME_ROLE('classification_date');
#650=CC_DESIGN_DATE_AND_TIME_ASSIGNMENT(#645,#649,(#637));
#651=PERSON('UNSPECIFIED','UNSPECIFIED',$,$,$,$);
#652=ORGANIZATION('UNSPECIFIED','UNSPECIFIED','UNSPECIFIED');
#653=PERSON_AND_ORGANIZATION(#651,#652);
#654=APPROVAL_ROLE('approver');
#655=APPROVAL_PERSON_ORGANIZATION(#653,#640,#654);
#656=PERSON_AND_ORGANIZATION_ROLE('creator');
#657=CC_DESIGN_PERSON_AND_ORGANIZATION_ASSIGNMENT(#653,#656,(#629,#630));
#658=PERSON_AND_ORGANIZATION_ROLE('design_supplier');
#659=CC_DESIGN_PERSON_AND_ORGANIZATION_ASSIGNMENT(#653,#658,(#629));
#660=PERSON_AND_ORGANIZATION_ROLE('classification_officer');
#661=CC_DESIGN_PERSON_AND_ORGANIZATION_ASSIGNMENT(#653,#660,(#637));
#662=PERSON_AND_ORGANIZATION_ROLE('design_owner');
#663=CC_DESIGN_PERSON_AND_ORGANIZATION_ASSIGNMENT(#653,#662,(#628));
#13=CIRCLE('',#12,1.069176574291E1);
#22=CIRCLE('',#21,1.025E1);
#31=CIRCLE('',#30,9.E-1);
#36=CIRCLE('',#35,9.E-1);
#41=CIRCLE('',#40,1.069176574291E1);
#46=CIRCLE('',#45,1.025E1);
#51=CIRCLE('',#50,1.110100202855E1);
#56=CIRCLE('',#55,1.E1);
#61=CIRCLE('',#60,1.614899797146E1);
#66=CIRCLE('',#65,1.E1);
#71=CIRCLE('',#70,1.110100202855E1);
#76=CIRCLE('',#75,1.614899797146E1);
#81=CIRCLE('',#80,9.E-1);
#86=CIRCLE('',#85,1.655823425709E1);
#95=CIRCLE('',#94,1.7E1);
#104=CIRCLE('',#103,1.655823425709E1);
#109=CIRCLE('',#108,1.7E1);
#114=CIRCLE('',#113,9.E-1);
#127=CIRCLE('',#126,1.655823425709E1);
#136=CIRCLE('',#135,1.7E1);
#145=CIRCLE('',#144,9.E-1);
#150=CIRCLE('',#149,9.E-1);
#155=CIRCLE('',#154,1.655823425709E1);
#160=CIRCLE('',#159,1.7E1);
#165=CIRCLE('',#164,1.614899797146E1);
#170=CIRCLE('',#169,1.E1);
#175=CIRCLE('',#174,1.110100202855E1);
#180=CIRCLE('',#179,1.E1);
#185=CIRCLE('',#184,1.614899797146E1);
#190=CIRCLE('',#189,1.110100202855E1);
#195=CIRCLE('',#194,9.E-1);
#200=CIRCLE('',#199,1.069176574291E1);
#209=CIRCLE('',#208,1.025E1);
#218=CIRCLE('',#217,1.069176574291E1);
#223=CIRCLE('',#222,1.025E1);
#228=CIRCLE('',#227,9.E-1);
#282=EDGE_CURVE('',#239,#235,#4,.T.);
#284=EDGE_CURVE('',#239,#240,#223,.T.);
#286=EDGE_CURVE('',#240,#236,#8,.T.);
#288=EDGE_CURVE('',#235,#236,#46,.T.);
#299=EDGE_CURVE('',#235,#236,#22,.T.);
#302=EDGE_CURVE('',#239,#240,#209,.T.);
#312=EDGE_CURVE('',#248,#247,#13,.T.);
#314=EDGE_CURVE('',#248,#236,#17,.T.);
#317=EDGE_CURVE('',#247,#235,#26,.T.);
#328=EDGE_CURVE('',#247,#251,#36,.T.);
#330=EDGE_CURVE('',#252,#251,#71,.T.);
#332=EDGE_CURVE('',#248,#252,#31,.T.);
#342=EDGE_CURVE('',#247,#248,#41,.T.);
#345=EDGE_CURVE('',#251,#252,#51,.T.);
#369=EDGE_CURVE('',#259,#252,#56,.T.);
#371=EDGE_CURVE('',#259,#260,#61,.T.);
#373=EDGE_CURVE('',#260,#251,#66,.T.);
#385=EDGE_CURVE('',#260,#259,#76,.T.);
#396=EDGE_CURVE('',#256,#255,#86,.T.);
#398=EDGE_CURVE('',#255,#259,#114,.T.);
#401=EDGE_CURVE('',#256,#260,#81,.T.);
#412=EDGE_CURVE('',#231,#256,#90,.T.);
#414=EDGE_CURVE('',#231,#232,#95,.T.);
#416=EDGE_CURVE('',#232,#255,#99,.T.);
#426=EDGE_CURVE('',#255,#256,#104,.T.);
#429=EDGE_CURVE('',#231,#232,#109,.T.);
#452=EDGE_CURVE('',#231,#243,#118,.T.);
#455=EDGE_CURVE('',#232,#244,#122,.T.);
#457=EDGE_CURVE('',#243,#244,#160,.T.);
#468=EDGE_CURVE('',#243,#244,#136,.T.);
#480=EDGE_CURVE('',#263,#264,#127,.T.);
#482=EDGE_CURVE('',#263,#244,#131,.T.);
#485=EDGE_CURVE('',#264,#243,#140,.T.);
#496=EDGE_CURVE('',#264,#268,#150,.T.);
#498=EDGE_CURVE('',#267,#268,#185,.T.);
#500=EDGE_CURVE('',#263,#267,#145,.T.);
#510=EDGE_CURVE('',#264,#263,#155,.T.);
#513=EDGE_CURVE('',#268,#267,#165,.T.);
#537=EDGE_CURVE('',#267,#275,#170,.T.);
#539=EDGE_CURVE('',#275,#276,#175,.T.);
#541=EDGE_CURVE('',#268,#276,#180,.T.);
#553=EDGE_CURVE('',#276,#275,#190,.T.);
#564=EDGE_CURVE('',#272,#271,#200,.T.);
#566=EDGE_CURVE('',#271,#275,#228,.T.);
#569=EDGE_CURVE('',#272,#276,#195,.T.);
#580=EDGE_CURVE('',#239,#272,#204,.T.);
#583=EDGE_CURVE('',#240,#271,#213,.T.);
#593=EDGE_CURVE('',#271,#272,#218,.T.);
#615=(LENGTH_UNIT()NAMED_UNIT(*)SI_UNIT(.MILLI.,.METRE.));
#617=(NAMED_UNIT(*)PLANE_ANGLE_UNIT()SI_UNIT($,.RADIAN.));
#620=(NAMED_UNIT(*)SI_UNIT($,.STERADIAN.)SOLID_ANGLE_UNIT());
#623=ADVANCED_BREP_SHAPE_REPRESENTATION('',(#614),#622);
#630=PRODUCT_DEFINITION('design','',#629,#626);
#631=PRODUCT_DEFINITION_SHAPE('','SHAPE FOR C61020-A0045-C010-03-7606.',#630);
#632=SHAPE_DEFINITION_REPRESENTATION(#631,#623);
ENDSEC;
END-ISO-10303-21;
