ISO-10303-21;
HEADER;
FILE_DESCRIPTION((''),'2;1');
FILE_NAME('C61020-A0020-C014-06-7606','2018-06-08T',('ec7121'),(''),
'PRO/ENGINEER BY PARAMETRIC TECHNOLOGY CORPORATION, 2014000',
'PRO/ENGINEER BY PARAMETRIC TECHNOLOGY CORPORATION, 2014000','');
FILE_SCHEMA(('CONFIG_CONTROL_DESIGN'));
ENDSEC;
DATA;
#1=CARTESIAN_POINT('',(-2.427498685594E0,0.E0,0.E0));
#2=DIRECTION('',(1.E0,0.E0,0.E0));
#3=DIRECTION('',(0.E0,1.E0,0.E0));
#4=AXIS2_PLACEMENT_3D('',#1,#2,#3);
#6=CARTESIAN_POINT('',(-5.E-2,7.5E0,0.E0));
#7=DIRECTION('',(0.E0,0.E0,1.E0));
#8=DIRECTION('',(-6.891300537953E-1,7.246376811594E-1,0.E0));
#9=AXIS2_PLACEMENT_3D('',#6,#7,#8);
#11=CARTESIAN_POINT('',(-5.E-2,-7.5E0,0.E0));
#12=DIRECTION('',(0.E0,0.E0,-1.E0));
#13=DIRECTION('',(-6.891300537953E-1,-7.246376811594E-1,0.E0));
#14=AXIS2_PLACEMENT_3D('',#11,#12,#13);
#16=CARTESIAN_POINT('',(-2.427498685594E0,0.E0,0.E0));
#17=DIRECTION('',(-1.E0,0.E0,0.E0));
#18=DIRECTION('',(0.E0,1.E0,0.E0));
#19=AXIS2_PLACEMENT_3D('',#16,#17,#18);
#21=DIRECTION('',(1.E0,0.E0,0.E0));
#22=VECTOR('',#21,4.854997371187E0);
#23=CARTESIAN_POINT('',(-2.427498685594E0,5.E0,0.E0));
#24=LINE('',#23,#22);
#25=DIRECTION('',(1.E0,0.E0,0.E0));
#26=VECTOR('',#25,4.854997371187E0);
#27=CARTESIAN_POINT('',(-2.427498685594E0,-5.E0,0.E0));
#28=LINE('',#27,#26);
#29=CARTESIAN_POINT('',(-2.427498685594E0,0.E0,0.E0));
#30=DIRECTION('',(-1.E0,0.E0,0.E0));
#31=DIRECTION('',(0.E0,1.E0,0.E0));
#32=AXIS2_PLACEMENT_3D('',#29,#30,#31);
#34=CARTESIAN_POINT('',(-2.427498685594E0,0.E0,0.E0));
#35=DIRECTION('',(1.E0,0.E0,0.E0));
#36=DIRECTION('',(0.E0,1.E0,0.E0));
#37=AXIS2_PLACEMENT_3D('',#34,#35,#36);
#39=CARTESIAN_POINT('',(2.427498685594E0,0.E0,0.E0));
#40=DIRECTION('',(1.E0,0.E0,0.E0));
#41=DIRECTION('',(0.E0,1.E0,0.E0));
#42=AXIS2_PLACEMENT_3D('',#39,#40,#41);
#44=CARTESIAN_POINT('',(5.E-2,7.5E0,0.E0));
#45=DIRECTION('',(0.E0,0.E0,1.E0));
#46=DIRECTION('',(6.891300537953E-1,-7.246376811594E-1,0.E0));
#47=AXIS2_PLACEMENT_3D('',#44,#45,#46);
#49=CARTESIAN_POINT('',(5.E-2,-7.5E0,0.E0));
#50=DIRECTION('',(0.E0,0.E0,-1.E0));
#51=DIRECTION('',(6.891300537953E-1,7.246376811594E-1,0.E0));
#52=AXIS2_PLACEMENT_3D('',#49,#50,#51);
#54=CARTESIAN_POINT('',(2.427498685594E0,0.E0,0.E0));
#55=DIRECTION('',(-1.E0,0.E0,0.E0));
#56=DIRECTION('',(0.E0,1.E0,0.E0));
#57=AXIS2_PLACEMENT_3D('',#54,#55,#56);
#59=DIRECTION('',(-1.E0,0.E0,0.E0));
#60=VECTOR('',#59,4.854997371187E0);
#61=CARTESIAN_POINT('',(2.427498685594E0,1.E1,0.E0));
#62=LINE('',#61,#60);
#63=DIRECTION('',(-1.E0,0.E0,0.E0));
#64=VECTOR('',#63,4.854997371187E0);
#65=CARTESIAN_POINT('',(2.427498685594E0,-1.E1,0.E0));
#66=LINE('',#65,#64);
#67=CARTESIAN_POINT('',(2.427498685594E0,0.E0,0.E0));
#68=DIRECTION('',(-1.E0,0.E0,0.E0));
#69=DIRECTION('',(0.E0,1.E0,0.E0));
#70=AXIS2_PLACEMENT_3D('',#67,#68,#69);
#72=CARTESIAN_POINT('',(2.427498685594E0,0.E0,0.E0));
#73=DIRECTION('',(1.E0,0.E0,0.E0));
#74=DIRECTION('',(0.E0,1.E0,0.E0));
#75=AXIS2_PLACEMENT_3D('',#72,#73,#74);
#77=CARTESIAN_POINT('',(-2.427498685594E0,5.E0,0.E0));
#78=CARTESIAN_POINT('',(2.427498685594E0,5.E0,0.E0));
#79=VERTEX_POINT('',#77);
#80=VERTEX_POINT('',#78);
#81=CARTESIAN_POINT('',(2.427498685594E0,1.E1,0.E0));
#82=CARTESIAN_POINT('',(-2.427498685594E0,1.E1,0.E0));
#83=VERTEX_POINT('',#81);
#84=VERTEX_POINT('',#82);
#85=CARTESIAN_POINT('',(-2.427498685594E0,-5.E0,0.E0));
#86=CARTESIAN_POINT('',(2.427498685594E0,-5.E0,0.E0));
#87=VERTEX_POINT('',#85);
#88=VERTEX_POINT('',#86);
#89=CARTESIAN_POINT('',(2.427498685594E0,-1.E1,0.E0));
#90=CARTESIAN_POINT('',(-2.427498685594E0,-1.E1,0.E0));
#91=VERTEX_POINT('',#89);
#92=VERTEX_POINT('',#90);
#93=CARTESIAN_POINT('',(-5.E-2,0.E0,0.E0));
#94=DIRECTION('',(1.E0,0.E0,0.E0));
#95=DIRECTION('',(0.E0,-1.E0,0.E0));
#96=AXIS2_PLACEMENT_3D('',#93,#94,#95);
#97=TOROIDAL_SURFACE('',#96,7.5E0,3.45E0);
#99=ORIENTED_EDGE('',*,*,#98,.F.);
#101=ORIENTED_EDGE('',*,*,#100,.T.);
#103=ORIENTED_EDGE('',*,*,#102,.T.);
#105=ORIENTED_EDGE('',*,*,#104,.F.);
#106=EDGE_LOOP('',(#99,#101,#103,#105));
#107=FACE_OUTER_BOUND('',#106,.F.);
#108=ADVANCED_FACE('',(#107),#97,.T.);
#109=CARTESIAN_POINT('',(-5.E-2,0.E0,0.E0));
#110=DIRECTION('',(1.E0,0.E0,0.E0));
#111=DIRECTION('',(0.E0,-1.E0,0.E0));
#112=AXIS2_PLACEMENT_3D('',#109,#110,#111);
#113=TOROIDAL_SURFACE('',#112,7.5E0,3.45E0);
#114=ORIENTED_EDGE('',*,*,#98,.T.);
#116=ORIENTED_EDGE('',*,*,#115,.T.);
#117=ORIENTED_EDGE('',*,*,#102,.F.);
#119=ORIENTED_EDGE('',*,*,#118,.F.);
#120=EDGE_LOOP('',(#114,#116,#117,#119));
#121=FACE_OUTER_BOUND('',#120,.F.);
#122=ADVANCED_FACE('',(#121),#113,.T.);
#123=CARTESIAN_POINT('',(-3.85E0,0.E0,0.E0));
#124=DIRECTION('',(1.E0,0.E0,0.E0));
#125=DIRECTION('',(0.E0,-1.E0,0.E0));
#126=AXIS2_PLACEMENT_3D('',#123,#124,#125);
#127=CYLINDRICAL_SURFACE('',#126,5.E0);
#129=ORIENTED_EDGE('',*,*,#128,.T.);
#131=ORIENTED_EDGE('',*,*,#130,.T.);
#133=ORIENTED_EDGE('',*,*,#132,.F.);
#134=ORIENTED_EDGE('',*,*,#115,.F.);
#135=EDGE_LOOP('',(#129,#131,#133,#134));
#136=FACE_OUTER_BOUND('',#135,.F.);
#137=ADVANCED_FACE('',(#136),#127,.F.);
#138=CARTESIAN_POINT('',(-3.85E0,0.E0,0.E0));
#139=DIRECTION('',(1.E0,0.E0,0.E0));
#140=DIRECTION('',(0.E0,-1.E0,0.E0));
#141=AXIS2_PLACEMENT_3D('',#138,#139,#140);
#142=CYLINDRICAL_SURFACE('',#141,5.E0);
#143=ORIENTED_EDGE('',*,*,#128,.F.);
#144=ORIENTED_EDGE('',*,*,#104,.T.);
#145=ORIENTED_EDGE('',*,*,#132,.T.);
#147=ORIENTED_EDGE('',*,*,#146,.F.);
#148=EDGE_LOOP('',(#143,#144,#145,#147));
#149=FACE_OUTER_BOUND('',#148,.F.);
#150=ADVANCED_FACE('',(#149),#142,.F.);
#151=CARTESIAN_POINT('',(5.E-2,0.E0,0.E0));
#152=DIRECTION('',(1.E0,0.E0,0.E0));
#153=DIRECTION('',(0.E0,-1.E0,0.E0));
#154=AXIS2_PLACEMENT_3D('',#151,#152,#153);
#155=TOROIDAL_SURFACE('',#154,7.5E0,3.45E0);
#157=ORIENTED_EDGE('',*,*,#156,.F.);
#158=ORIENTED_EDGE('',*,*,#146,.T.);
#160=ORIENTED_EDGE('',*,*,#159,.T.);
#162=ORIENTED_EDGE('',*,*,#161,.F.);
#163=EDGE_LOOP('',(#157,#158,#160,#162));
#164=FACE_OUTER_BOUND('',#163,.F.);
#165=ADVANCED_FACE('',(#164),#155,.T.);
#166=CARTESIAN_POINT('',(5.E-2,0.E0,0.E0));
#167=DIRECTION('',(1.E0,0.E0,0.E0));
#168=DIRECTION('',(0.E0,-1.E0,0.E0));
#169=AXIS2_PLACEMENT_3D('',#166,#167,#168);
#170=TOROIDAL_SURFACE('',#169,7.5E0,3.45E0);
#171=ORIENTED_EDGE('',*,*,#156,.T.);
#173=ORIENTED_EDGE('',*,*,#172,.T.);
#174=ORIENTED_EDGE('',*,*,#159,.F.);
#175=ORIENTED_EDGE('',*,*,#130,.F.);
#176=EDGE_LOOP('',(#171,#173,#174,#175));
#177=FACE_OUTER_BOUND('',#176,.F.);
#178=ADVANCED_FACE('',(#177),#170,.T.);
#179=CARTESIAN_POINT('',(-3.85E0,0.E0,0.E0));
#180=DIRECTION('',(1.E0,0.E0,0.E0));
#181=DIRECTION('',(0.E0,-1.E0,0.E0));
#182=AXIS2_PLACEMENT_3D('',#179,#180,#181);
#183=CYLINDRICAL_SURFACE('',#182,1.E1);
#185=ORIENTED_EDGE('',*,*,#184,.T.);
#186=ORIENTED_EDGE('',*,*,#118,.T.);
#188=ORIENTED_EDGE('',*,*,#187,.F.);
#189=ORIENTED_EDGE('',*,*,#172,.F.);
#190=EDGE_LOOP('',(#185,#186,#188,#189));
#191=FACE_OUTER_BOUND('',#190,.F.);
#192=ADVANCED_FACE('',(#191),#183,.T.);
#193=CARTESIAN_POINT('',(-3.85E0,0.E0,0.E0));
#194=DIRECTION('',(1.E0,0.E0,0.E0));
#195=DIRECTION('',(0.E0,-1.E0,0.E0));
#196=AXIS2_PLACEMENT_3D('',#193,#194,#195);
#197=CYLINDRICAL_SURFACE('',#196,1.E1);
#198=ORIENTED_EDGE('',*,*,#184,.F.);
#199=ORIENTED_EDGE('',*,*,#161,.T.);
#200=ORIENTED_EDGE('',*,*,#187,.T.);
#201=ORIENTED_EDGE('',*,*,#100,.F.);
#202=EDGE_LOOP('',(#198,#199,#200,#201));
#203=FACE_OUTER_BOUND('',#202,.F.);
#204=ADVANCED_FACE('',(#203),#197,.T.);
#205=CLOSED_SHELL('',(#108,#122,#137,#150,#165,#178,#192,#204));
#206=MANIFOLD_SOLID_BREP('',#205);
#208=DIMENSIONAL_EXPONENTS(0.E0,0.E0,0.E0,0.E0,0.E0,0.E0,0.E0);
#210=PLANE_ANGLE_MEASURE_WITH_UNIT(PLANE_ANGLE_MEASURE(1.745329251994E-2),#209);
#211=(CONVERSION_BASED_UNIT('DEGREE',#210)NAMED_UNIT(*)PLANE_ANGLE_UNIT());
#213=UNCERTAINTY_MEASURE_WITH_UNIT(LENGTH_MEASURE(1.E-4),#207,'closure',
'Maximum model space distance between geometric entities at asserted connectivities');
#214=(GEOMETRIC_REPRESENTATION_CONTEXT(3)GLOBAL_UNCERTAINTY_ASSIGNED_CONTEXT((
#213))GLOBAL_UNIT_ASSIGNED_CONTEXT((#207,#211,#212))REPRESENTATION_CONTEXT
('ID1','3'));
#216=APPLICATION_CONTEXT(
'CONFIGURATION CONTROLLED 3D DESIGNS OF MECHANICAL PARTS AND ASSEMBLIES');
#217=APPLICATION_PROTOCOL_DEFINITION('international standard',
'config_control_design',1994,#216);
#218=DESIGN_CONTEXT('',#216,'design');
#219=MECHANICAL_CONTEXT('',#216,'mechanical');
#220=PRODUCT('C61020-A0020-C014-06-7606','C61020-A0020-C014-06-7606',
'NOT SPECIFIED',(#219));
#221=PRODUCT_DEFINITION_FORMATION_WITH_SPECIFIED_SOURCE('4','LAST_VERSION',#220,
.MADE.);
#225=PRODUCT_CATEGORY('part','');
#226=PRODUCT_RELATED_PRODUCT_CATEGORY('detail','',(#220));
#227=PRODUCT_CATEGORY_RELATIONSHIP('','',#225,#226);
#228=SECURITY_CLASSIFICATION_LEVEL('unclassified');
#229=SECURITY_CLASSIFICATION('','',#228);
#230=CC_DESIGN_SECURITY_CLASSIFICATION(#229,(#221));
#231=APPROVAL_STATUS('approved');
#232=APPROVAL(#231,'');
#233=CC_DESIGN_APPROVAL(#232,(#229,#221,#222));
#234=CALENDAR_DATE(118,8,6);
#235=COORDINATED_UNIVERSAL_TIME_OFFSET(2,0,.AHEAD.);
#236=LOCAL_TIME(15,26,3.6E1,#235);
#237=DATE_AND_TIME(#234,#236);
#238=APPROVAL_DATE_TIME(#237,#232);
#239=DATE_TIME_ROLE('creation_date');
#240=CC_DESIGN_DATE_AND_TIME_ASSIGNMENT(#237,#239,(#222));
#241=DATE_TIME_ROLE('classification_date');
#242=CC_DESIGN_DATE_AND_TIME_ASSIGNMENT(#237,#241,(#229));
#243=PERSON('UNSPECIFIED','UNSPECIFIED',$,$,$,$);
#244=ORGANIZATION('UNSPECIFIED','UNSPECIFIED','UNSPECIFIED');
#245=PERSON_AND_ORGANIZATION(#243,#244);
#246=APPROVAL_ROLE('approver');
#247=APPROVAL_PERSON_ORGANIZATION(#245,#232,#246);
#248=PERSON_AND_ORGANIZATION_ROLE('creator');
#249=CC_DESIGN_PERSON_AND_ORGANIZATION_ASSIGNMENT(#245,#248,(#221,#222));
#250=PERSON_AND_ORGANIZATION_ROLE('design_supplier');
#251=CC_DESIGN_PERSON_AND_ORGANIZATION_ASSIGNMENT(#245,#250,(#221));
#252=PERSON_AND_ORGANIZATION_ROLE('classification_officer');
#253=CC_DESIGN_PERSON_AND_ORGANIZATION_ASSIGNMENT(#245,#252,(#229));
#254=PERSON_AND_ORGANIZATION_ROLE('design_owner');
#255=CC_DESIGN_PERSON_AND_ORGANIZATION_ASSIGNMENT(#245,#254,(#220));
#5=CIRCLE('',#4,1.E1);
#10=CIRCLE('',#9,3.45E0);
#15=CIRCLE('',#14,3.45E0);
#20=CIRCLE('',#19,1.E1);
#33=CIRCLE('',#32,5.E0);
#38=CIRCLE('',#37,5.E0);
#43=CIRCLE('',#42,5.E0);
#48=CIRCLE('',#47,3.45E0);
#53=CIRCLE('',#52,3.45E0);
#58=CIRCLE('',#57,5.E0);
#71=CIRCLE('',#70,1.E1);
#76=CIRCLE('',#75,1.E1);
#98=EDGE_CURVE('',#84,#79,#10,.T.);
#100=EDGE_CURVE('',#84,#92,#5,.T.);
#102=EDGE_CURVE('',#92,#87,#15,.T.);
#104=EDGE_CURVE('',#79,#87,#38,.T.);
#115=EDGE_CURVE('',#79,#87,#33,.T.);
#118=EDGE_CURVE('',#84,#92,#20,.T.);
#128=EDGE_CURVE('',#79,#80,#24,.T.);
#130=EDGE_CURVE('',#80,#88,#58,.T.);
#132=EDGE_CURVE('',#87,#88,#28,.T.);
#146=EDGE_CURVE('',#80,#88,#43,.T.);
#156=EDGE_CURVE('',#80,#83,#48,.T.);
#159=EDGE_CURVE('',#88,#91,#53,.T.);
#161=EDGE_CURVE('',#83,#91,#76,.T.);
#172=EDGE_CURVE('',#83,#91,#71,.T.);
#184=EDGE_CURVE('',#83,#84,#62,.T.);
#187=EDGE_CURVE('',#91,#92,#66,.T.);
#207=(LENGTH_UNIT()NAMED_UNIT(*)SI_UNIT(.MILLI.,.METRE.));
#209=(NAMED_UNIT(*)PLANE_ANGLE_UNIT()SI_UNIT($,.RADIAN.));
#212=(NAMED_UNIT(*)SI_UNIT($,.STERADIAN.)SOLID_ANGLE_UNIT());
#215=ADVANCED_BREP_SHAPE_REPRESENTATION('',(#206),#214);
#222=PRODUCT_DEFINITION('design','',#221,#218);
#223=PRODUCT_DEFINITION_SHAPE('','SHAPE FOR C61020-A0020-C014-06-7606.',#222);
#224=SHAPE_DEFINITION_REPRESENTATION(#223,#215);
ENDSEC;
END-ISO-10303-21;
