ISO-10303-21;
HEADER;
FILE_DESCRIPTION((''),'2;1');
FILE_NAME('C61020-A0006-C004-07-7606','2018-06-08T',('ec7121'),(''),
'PRO/ENGINEER BY PARAMETRIC TECHNOLOGY CORPORATION, 2014000',
'PRO/ENGINEER BY PARAMETRIC TECHNOLOGY CORPORATION, 2014000','');
FILE_SCHEMA(('CONFIG_CONTROL_DESIGN'));
ENDSEC;
DATA;
#1=CARTESIAN_POINT('',(-1.161700735474E0,0.E0,0.E0));
#2=DIRECTION('',(-1.E0,0.E0,0.E0));
#3=DIRECTION('',(0.E0,-1.E0,0.E0));
#4=AXIS2_PLACEMENT_3D('',#1,#2,#3);
#6=CARTESIAN_POINT('',(-1.161700735478E0,0.E0,0.E0));
#7=DIRECTION('',(-1.E0,0.E0,0.E0));
#8=DIRECTION('',(0.E0,-1.E0,0.E0));
#9=AXIS2_PLACEMENT_3D('',#6,#7,#8);
#11=CARTESIAN_POINT('',(-1.073825213071E0,-3.05E0,0.E0));
#12=DIRECTION('',(0.E0,0.E0,1.E0));
#13=DIRECTION('',(-8.787552240537E-1,-4.772727272727E-1,0.E0));
#14=AXIS2_PLACEMENT_3D('',#11,#12,#13);
#16=CARTESIAN_POINT('',(-1.073825213071E0,3.05E0,0.E0));
#17=DIRECTION('',(0.E0,0.E0,-1.E0));
#18=DIRECTION('',(-8.787552240537E-1,4.772727272727E-1,0.E0));
#19=AXIS2_PLACEMENT_3D('',#16,#17,#18);
#21=CARTESIAN_POINT('',(-1.161700735474E0,0.E0,0.E0));
#22=DIRECTION('',(-1.E0,0.E0,0.E0));
#23=DIRECTION('',(0.E0,1.E0,0.E0));
#24=AXIS2_PLACEMENT_3D('',#21,#22,#23);
#26=CARTESIAN_POINT('',(-1.071944666115E-1,2.525E0,0.E0));
#27=DIRECTION('',(0.E0,0.E0,1.E0));
#28=DIRECTION('',(-8.787552240537E-1,4.772727272727E-1,0.E0));
#29=AXIS2_PLACEMENT_3D('',#26,#27,#28);
#31=CARTESIAN_POINT('',(-1.161700735478E0,0.E0,0.E0));
#32=DIRECTION('',(-1.E0,0.E0,0.E0));
#33=DIRECTION('',(0.E0,1.E0,0.E0));
#34=AXIS2_PLACEMENT_3D('',#31,#32,#33);
#36=CARTESIAN_POINT('',(-1.071944666115E-1,-2.525E0,0.E0));
#37=DIRECTION('',(0.E0,0.E0,-1.E0));
#38=DIRECTION('',(-8.787552240537E-1,-4.772727272727E-1,0.E0));
#39=AXIS2_PLACEMENT_3D('',#36,#37,#38);
#41=CARTESIAN_POINT('',(-1.073825213071E0,2.E0,0.E0));
#42=DIRECTION('',(0.E0,0.E0,-1.E0));
#43=DIRECTION('',(0.E0,-1.E0,0.E0));
#44=AXIS2_PLACEMENT_3D('',#41,#42,#43);
#46=CARTESIAN_POINT('',(-1.073825213071E0,0.E0,0.E0));
#47=DIRECTION('',(-1.E0,0.E0,0.E0));
#48=DIRECTION('',(0.E0,1.E0,0.E0));
#49=AXIS2_PLACEMENT_3D('',#46,#47,#48);
#51=DIRECTION('',(1.E0,0.E0,0.E0));
#52=VECTOR('',#51,2.033261492918E0);
#53=CARTESIAN_POINT('',(-1.073825213071E0,1.9E0,0.E0));
#54=LINE('',#53,#52);
#55=CARTESIAN_POINT('',(9.594362798475E-1,0.E0,0.E0));
#56=DIRECTION('',(-1.E0,0.E0,0.E0));
#57=DIRECTION('',(0.E0,1.E0,0.E0));
#58=AXIS2_PLACEMENT_3D('',#55,#56,#57);
#60=DIRECTION('',(1.E0,0.E0,0.E0));
#61=VECTOR('',#60,2.033261492918E0);
#62=CARTESIAN_POINT('',(-1.073825213071E0,-1.9E0,0.E0));
#63=LINE('',#62,#61);
#64=CARTESIAN_POINT('',(-1.073825213071E0,0.E0,0.E0));
#65=DIRECTION('',(-1.E0,0.E0,0.E0));
#66=DIRECTION('',(0.E0,-1.E0,0.E0));
#67=AXIS2_PLACEMENT_3D('',#64,#65,#66);
#69=CARTESIAN_POINT('',(9.594362798475E-1,0.E0,0.E0));
#70=DIRECTION('',(-1.E0,0.E0,0.E0));
#71=DIRECTION('',(0.E0,-1.E0,0.E0));
#72=AXIS2_PLACEMENT_3D('',#69,#70,#71);
#74=CARTESIAN_POINT('',(-1.073825213071E0,-2.E0,0.E0));
#75=DIRECTION('',(0.E0,0.E0,1.E0));
#76=DIRECTION('',(0.E0,1.E0,0.E0));
#77=AXIS2_PLACEMENT_3D('',#74,#75,#76);
#79=CARTESIAN_POINT('',(9.594362798475E-1,-2.E0,0.E0));
#80=DIRECTION('',(0.E0,0.E0,1.E0));
#81=DIRECTION('',(8.787552240537E-1,4.772727272727E-1,0.E0));
#82=AXIS2_PLACEMENT_3D('',#79,#80,#81);
#84=CARTESIAN_POINT('',(1.047311802250E0,0.E0,0.E0));
#85=DIRECTION('',(-1.E0,0.E0,0.E0));
#86=DIRECTION('',(0.E0,-1.E0,0.E0));
#87=AXIS2_PLACEMENT_3D('',#84,#85,#86);
#89=CARTESIAN_POINT('',(1.047311802257E0,0.E0,0.E0));
#90=DIRECTION('',(-1.E0,0.E0,0.E0));
#91=DIRECTION('',(0.E0,-1.E0,0.E0));
#92=AXIS2_PLACEMENT_3D('',#89,#90,#91);
#94=CARTESIAN_POINT('',(9.594362798475E-1,-3.05E0,0.E0));
#95=DIRECTION('',(0.E0,0.E0,1.E0));
#96=DIRECTION('',(0.E0,-1.E0,0.E0));
#97=AXIS2_PLACEMENT_3D('',#94,#95,#96);
#99=CARTESIAN_POINT('',(-1.073825213071E0,0.E0,0.E0));
#100=DIRECTION('',(-1.E0,0.E0,0.E0));
#101=DIRECTION('',(0.E0,-1.E0,0.E0));
#102=AXIS2_PLACEMENT_3D('',#99,#100,#101);
#104=CARTESIAN_POINT('',(9.594362798476E-1,0.E0,0.E0));
#105=DIRECTION('',(-1.E0,0.E0,0.E0));
#106=DIRECTION('',(0.E0,-1.E0,0.E0));
#107=AXIS2_PLACEMENT_3D('',#104,#105,#106);
#109=CARTESIAN_POINT('',(-1.073825213071E0,0.E0,0.E0));
#110=DIRECTION('',(-1.E0,0.E0,0.E0));
#111=DIRECTION('',(0.E0,1.E0,0.E0));
#112=AXIS2_PLACEMENT_3D('',#109,#110,#111);
#114=DIRECTION('',(-1.E0,0.E0,0.E0));
#115=VECTOR('',#114,2.033261492918E0);
#116=CARTESIAN_POINT('',(9.594362798475E-1,-3.15E0,0.E0));
#117=LINE('',#116,#115);
#118=CARTESIAN_POINT('',(9.594362798476E-1,0.E0,0.E0));
#119=DIRECTION('',(-1.E0,0.E0,0.E0));
#120=DIRECTION('',(0.E0,1.E0,0.E0));
#121=AXIS2_PLACEMENT_3D('',#118,#119,#120);
#123=DIRECTION('',(-1.E0,0.E0,0.E0));
#124=VECTOR('',#123,2.033261492918E0);
#125=CARTESIAN_POINT('',(9.594362798475E-1,3.15E0,0.E0));
#126=LINE('',#125,#124);
#127=CARTESIAN_POINT('',(9.594362798475E-1,3.05E0,0.E0));
#128=DIRECTION('',(0.E0,0.E0,-1.E0));
#129=DIRECTION('',(0.E0,1.E0,0.E0));
#130=AXIS2_PLACEMENT_3D('',#127,#128,#129);
#132=CARTESIAN_POINT('',(1.047311802250E0,0.E0,0.E0));
#133=DIRECTION('',(-1.E0,0.E0,0.E0));
#134=DIRECTION('',(0.E0,1.E0,0.E0));
#135=AXIS2_PLACEMENT_3D('',#132,#133,#134);
#137=CARTESIAN_POINT('',(-7.194466611549E-3,-2.525E0,0.E0));
#138=DIRECTION('',(0.E0,0.E0,-1.E0));
#139=DIRECTION('',(8.787552240537E-1,4.772727272727E-1,0.E0));
#140=AXIS2_PLACEMENT_3D('',#137,#138,#139);
#142=CARTESIAN_POINT('',(1.047311802257E0,0.E0,0.E0));
#143=DIRECTION('',(-1.E0,0.E0,0.E0));
#144=DIRECTION('',(0.E0,1.E0,0.E0));
#145=AXIS2_PLACEMENT_3D('',#142,#143,#144);
#147=CARTESIAN_POINT('',(-7.194466611549E-3,2.525E0,0.E0));
#148=DIRECTION('',(0.E0,0.E0,1.E0));
#149=DIRECTION('',(8.787552240537E-1,-4.772727272727E-1,0.E0));
#150=AXIS2_PLACEMENT_3D('',#147,#148,#149);
#152=CARTESIAN_POINT('',(9.594362798475E-1,2.E0,0.E0));
#153=DIRECTION('',(0.E0,0.E0,-1.E0));
#154=DIRECTION('',(8.787552240537E-1,-4.772727272727E-1,0.E0));
#155=AXIS2_PLACEMENT_3D('',#152,#153,#154);
#157=CARTESIAN_POINT('',(-1.161700735474E0,-3.097727272730E0,0.E0));
#158=CARTESIAN_POINT('',(-1.161700735474E0,3.097727272730E0,0.E0));
#159=VERTEX_POINT('',#157);
#160=VERTEX_POINT('',#158);
#161=CARTESIAN_POINT('',(-1.073825213071E0,-3.15E0,0.E0));
#162=CARTESIAN_POINT('',(-1.073825213071E0,3.15E0,0.E0));
#163=VERTEX_POINT('',#161);
#164=VERTEX_POINT('',#162);
#165=CARTESIAN_POINT('',(-1.073825213071E0,-1.9E0,0.E0));
#166=CARTESIAN_POINT('',(-1.073825213071E0,1.9E0,0.E0));
#167=VERTEX_POINT('',#165);
#168=VERTEX_POINT('',#166);
#169=CARTESIAN_POINT('',(-1.161700735478E0,-1.952272727276E0,0.E0));
#170=CARTESIAN_POINT('',(-1.161700735478E0,1.952272727276E0,0.E0));
#171=VERTEX_POINT('',#169);
#172=VERTEX_POINT('',#170);
#173=CARTESIAN_POINT('',(9.594362798476E-1,-3.15E0,0.E0));
#174=CARTESIAN_POINT('',(9.594362798476E-1,3.15E0,0.E0));
#175=VERTEX_POINT('',#173);
#176=VERTEX_POINT('',#174);
#177=CARTESIAN_POINT('',(1.047311802250E0,-3.097727272732E0,0.E0));
#178=CARTESIAN_POINT('',(1.047311802250E0,3.097727272732E0,0.E0));
#179=VERTEX_POINT('',#177);
#180=VERTEX_POINT('',#178);
#181=CARTESIAN_POINT('',(1.047311802257E0,-1.952272727280E0,0.E0));
#182=CARTESIAN_POINT('',(1.047311802257E0,1.952272727280E0,0.E0));
#183=VERTEX_POINT('',#181);
#184=VERTEX_POINT('',#182);
#185=CARTESIAN_POINT('',(9.594362798475E-1,-1.9E0,0.E0));
#186=CARTESIAN_POINT('',(9.594362798475E-1,1.9E0,0.E0));
#187=VERTEX_POINT('',#185);
#188=VERTEX_POINT('',#186);
#189=CARTESIAN_POINT('',(-1.071944666115E-1,0.E0,0.E0));
#190=DIRECTION('',(1.E0,0.E0,0.E0));
#191=DIRECTION('',(0.E0,-1.E0,0.E0));
#192=AXIS2_PLACEMENT_3D('',#189,#190,#191);
#193=TOROIDAL_SURFACE('',#192,2.525E0,1.2E0);
#195=ORIENTED_EDGE('',*,*,#194,.F.);
#197=ORIENTED_EDGE('',*,*,#196,.T.);
#199=ORIENTED_EDGE('',*,*,#198,.T.);
#201=ORIENTED_EDGE('',*,*,#200,.F.);
#202=EDGE_LOOP('',(#195,#197,#199,#201));
#203=FACE_OUTER_BOUND('',#202,.F.);
#204=ADVANCED_FACE('',(#203),#193,.T.);
#205=CARTESIAN_POINT('',(-1.073825213071E0,0.E0,0.E0));
#206=DIRECTION('',(1.E0,0.E0,0.E0));
#207=DIRECTION('',(0.E0,-9.999998285642E-1,-5.855524417860E-4));
#208=AXIS2_PLACEMENT_3D('',#205,#206,#207);
#209=TOROIDAL_SURFACE('',#208,3.05E0,1.E-1);
#210=ORIENTED_EDGE('',*,*,#194,.T.);
#212=ORIENTED_EDGE('',*,*,#211,.T.);
#214=ORIENTED_EDGE('',*,*,#213,.F.);
#216=ORIENTED_EDGE('',*,*,#215,.F.);
#217=EDGE_LOOP('',(#210,#212,#214,#216));
#218=FACE_OUTER_BOUND('',#217,.F.);
#219=ADVANCED_FACE('',(#218),#209,.T.);
#220=CARTESIAN_POINT('',(-1.073825213071E0,0.E0,0.E0));
#221=DIRECTION('',(1.E0,0.E0,0.E0));
#222=DIRECTION('',(0.E0,9.999998285642E-1,5.855524417859E-4));
#223=AXIS2_PLACEMENT_3D('',#220,#221,#222);
#224=TOROIDAL_SURFACE('',#223,3.05E0,1.E-1);
#226=ORIENTED_EDGE('',*,*,#225,.T.);
#227=ORIENTED_EDGE('',*,*,#215,.T.);
#229=ORIENTED_EDGE('',*,*,#228,.F.);
#230=ORIENTED_EDGE('',*,*,#211,.F.);
#231=EDGE_LOOP('',(#226,#227,#229,#230));
#232=FACE_OUTER_BOUND('',#231,.F.);
#233=ADVANCED_FACE('',(#232),#224,.T.);
#234=CARTESIAN_POINT('',(-1.071944666115E-1,0.E0,0.E0));
#235=DIRECTION('',(1.E0,0.E0,0.E0));
#236=DIRECTION('',(0.E0,-1.E0,0.E0));
#237=AXIS2_PLACEMENT_3D('',#234,#235,#236);
#238=TOROIDAL_SURFACE('',#237,2.525E0,1.2E0);
#239=ORIENTED_EDGE('',*,*,#225,.F.);
#240=ORIENTED_EDGE('',*,*,#200,.T.);
#242=ORIENTED_EDGE('',*,*,#241,.T.);
#243=ORIENTED_EDGE('',*,*,#196,.F.);
#244=EDGE_LOOP('',(#239,#240,#242,#243));
#245=FACE_OUTER_BOUND('',#244,.F.);
#246=ADVANCED_FACE('',(#245),#238,.T.);
#247=CARTESIAN_POINT('',(-1.073825213071E0,0.E0,0.E0));
#248=DIRECTION('',(1.E0,0.E0,0.E0));
#249=DIRECTION('',(0.E0,9.999996972270E-1,7.781683425166E-4));
#250=AXIS2_PLACEMENT_3D('',#247,#248,#249);
#251=TOROIDAL_SURFACE('',#250,2.E0,1.E-1);
#253=ORIENTED_EDGE('',*,*,#252,.T.);
#255=ORIENTED_EDGE('',*,*,#254,.T.);
#256=ORIENTED_EDGE('',*,*,#241,.F.);
#258=ORIENTED_EDGE('',*,*,#257,.F.);
#259=EDGE_LOOP('',(#253,#255,#256,#258));
#260=FACE_OUTER_BOUND('',#259,.F.);
#261=ADVANCED_FACE('',(#260),#251,.T.);
#262=CARTESIAN_POINT('',(-1.432194466612E0,0.E0,0.E0));
#263=DIRECTION('',(1.E0,0.E0,0.E0));
#264=DIRECTION('',(0.E0,-1.E0,0.E0));
#265=AXIS2_PLACEMENT_3D('',#262,#263,#264);
#266=CYLINDRICAL_SURFACE('',#265,1.9E0);
#267=ORIENTED_EDGE('',*,*,#252,.F.);
#269=ORIENTED_EDGE('',*,*,#268,.T.);
#271=ORIENTED_EDGE('',*,*,#270,.T.);
#273=ORIENTED_EDGE('',*,*,#272,.F.);
#274=EDGE_LOOP('',(#267,#269,#271,#273));
#275=FACE_OUTER_BOUND('',#274,.F.);
#276=ADVANCED_FACE('',(#275),#266,.F.);
#277=CARTESIAN_POINT('',(-1.432194466612E0,0.E0,0.E0));
#278=DIRECTION('',(1.E0,0.E0,0.E0));
#279=DIRECTION('',(0.E0,-1.E0,0.E0));
#280=AXIS2_PLACEMENT_3D('',#277,#278,#279);
#281=CYLINDRICAL_SURFACE('',#280,1.9E0);
#283=ORIENTED_EDGE('',*,*,#282,.F.);
#284=ORIENTED_EDGE('',*,*,#272,.T.);
#286=ORIENTED_EDGE('',*,*,#285,.T.);
#287=ORIENTED_EDGE('',*,*,#268,.F.);
#288=EDGE_LOOP('',(#283,#284,#286,#287));
#289=FACE_OUTER_BOUND('',#288,.F.);
#290=ADVANCED_FACE('',(#289),#281,.F.);
#291=CARTESIAN_POINT('',(-1.073825213071E0,0.E0,0.E0));
#292=DIRECTION('',(1.E0,0.E0,0.E0));
#293=DIRECTION('',(0.E0,-9.999996972270E-1,-7.781683425165E-4));
#294=AXIS2_PLACEMENT_3D('',#291,#292,#293);
#295=TOROIDAL_SURFACE('',#294,2.E0,1.E-1);
#296=ORIENTED_EDGE('',*,*,#282,.T.);
#297=ORIENTED_EDGE('',*,*,#257,.T.);
#298=ORIENTED_EDGE('',*,*,#198,.F.);
#299=ORIENTED_EDGE('',*,*,#254,.F.);
#300=EDGE_LOOP('',(#296,#297,#298,#299));
#301=FACE_OUTER_BOUND('',#300,.F.);
#302=ADVANCED_FACE('',(#301),#295,.T.);
#303=CARTESIAN_POINT('',(9.594362798475E-1,0.E0,0.E0));
#304=DIRECTION('',(1.E0,0.E0,0.E0));
#305=DIRECTION('',(0.E0,-9.999998285642E-1,-5.855524417860E-4));
#306=AXIS2_PLACEMENT_3D('',#303,#304,#305);
#307=TOROIDAL_SURFACE('',#306,2.E0,1.E-1);
#309=ORIENTED_EDGE('',*,*,#308,.T.);
#311=ORIENTED_EDGE('',*,*,#310,.T.);
#312=ORIENTED_EDGE('',*,*,#285,.F.);
#314=ORIENTED_EDGE('',*,*,#313,.F.);
#315=EDGE_LOOP('',(#309,#311,#312,#314));
#316=FACE_OUTER_BOUND('',#315,.F.);
#317=ADVANCED_FACE('',(#316),#307,.T.);
#318=CARTESIAN_POINT('',(-7.194466611549E-3,0.E0,0.E0));
#319=DIRECTION('',(1.E0,0.E0,0.E0));
#320=DIRECTION('',(0.E0,-1.E0,0.E0));
#321=AXIS2_PLACEMENT_3D('',#318,#319,#320);
#322=TOROIDAL_SURFACE('',#321,2.525E0,1.2E0);
#324=ORIENTED_EDGE('',*,*,#323,.T.);
#326=ORIENTED_EDGE('',*,*,#325,.F.);
#327=ORIENTED_EDGE('',*,*,#308,.F.);
#329=ORIENTED_EDGE('',*,*,#328,.T.);
#330=EDGE_LOOP('',(#324,#326,#327,#329));
#331=FACE_OUTER_BOUND('',#330,.F.);
#332=ADVANCED_FACE('',(#331),#322,.T.);
#333=CARTESIAN_POINT('',(9.594362798475E-1,0.E0,0.E0));
#334=DIRECTION('',(1.E0,0.E0,0.E0));
#335=DIRECTION('',(0.E0,-9.999998898452E-1,-4.693714113369E-4));
#336=AXIS2_PLACEMENT_3D('',#333,#334,#335);
#337=TOROIDAL_SURFACE('',#336,3.05E0,1.E-1);
#339=ORIENTED_EDGE('',*,*,#338,.T.);
#341=ORIENTED_EDGE('',*,*,#340,.T.);
#342=ORIENTED_EDGE('',*,*,#323,.F.);
#344=ORIENTED_EDGE('',*,*,#343,.F.);
#345=EDGE_LOOP('',(#339,#341,#342,#344));
#346=FACE_OUTER_BOUND('',#345,.F.);
#347=ADVANCED_FACE('',(#346),#337,.T.);
#348=CARTESIAN_POINT('',(-1.432194466612E0,0.E0,0.E0));
#349=DIRECTION('',(1.E0,0.E0,0.E0));
#350=DIRECTION('',(0.E0,-1.E0,0.E0));
#351=AXIS2_PLACEMENT_3D('',#348,#349,#350);
#352=CYLINDRICAL_SURFACE('',#351,3.15E0);
#353=ORIENTED_EDGE('',*,*,#213,.T.);
#355=ORIENTED_EDGE('',*,*,#354,.F.);
#356=ORIENTED_EDGE('',*,*,#338,.F.);
#358=ORIENTED_EDGE('',*,*,#357,.T.);
#359=EDGE_LOOP('',(#353,#355,#356,#358));
#360=FACE_OUTER_BOUND('',#359,.F.);
#361=ADVANCED_FACE('',(#360),#352,.T.);
#362=CARTESIAN_POINT('',(-1.432194466612E0,0.E0,0.E0));
#363=DIRECTION('',(1.E0,0.E0,0.E0));
#364=DIRECTION('',(0.E0,-1.E0,0.E0));
#365=AXIS2_PLACEMENT_3D('',#362,#363,#364);
#366=CYLINDRICAL_SURFACE('',#365,3.15E0);
#367=ORIENTED_EDGE('',*,*,#228,.T.);
#368=ORIENTED_EDGE('',*,*,#357,.F.);
#370=ORIENTED_EDGE('',*,*,#369,.F.);
#371=ORIENTED_EDGE('',*,*,#354,.T.);
#372=EDGE_LOOP('',(#367,#368,#370,#371));
#373=FACE_OUTER_BOUND('',#372,.F.);
#374=ADVANCED_FACE('',(#373),#366,.T.);
#375=CARTESIAN_POINT('',(9.594362798475E-1,0.E0,0.E0));
#376=DIRECTION('',(1.E0,0.E0,0.E0));
#377=DIRECTION('',(0.E0,9.999998898452E-1,4.693714113369E-4));
#378=AXIS2_PLACEMENT_3D('',#375,#376,#377);
#379=TOROIDAL_SURFACE('',#378,3.05E0,1.E-1);
#380=ORIENTED_EDGE('',*,*,#369,.T.);
#381=ORIENTED_EDGE('',*,*,#343,.T.);
#383=ORIENTED_EDGE('',*,*,#382,.F.);
#384=ORIENTED_EDGE('',*,*,#340,.F.);
#385=EDGE_LOOP('',(#380,#381,#383,#384));
#386=FACE_OUTER_BOUND('',#385,.F.);
#387=ADVANCED_FACE('',(#386),#379,.T.);
#388=CARTESIAN_POINT('',(-7.194466611549E-3,0.E0,0.E0));
#389=DIRECTION('',(1.E0,0.E0,0.E0));
#390=DIRECTION('',(0.E0,-1.E0,0.E0));
#391=AXIS2_PLACEMENT_3D('',#388,#389,#390);
#392=TOROIDAL_SURFACE('',#391,2.525E0,1.2E0);
#393=ORIENTED_EDGE('',*,*,#382,.T.);
#394=ORIENTED_EDGE('',*,*,#328,.F.);
#396=ORIENTED_EDGE('',*,*,#395,.F.);
#397=ORIENTED_EDGE('',*,*,#325,.T.);
#398=EDGE_LOOP('',(#393,#394,#396,#397));
#399=FACE_OUTER_BOUND('',#398,.F.);
#400=ADVANCED_FACE('',(#399),#392,.T.);
#401=CARTESIAN_POINT('',(9.594362798475E-1,0.E0,0.E0));
#402=DIRECTION('',(1.E0,0.E0,0.E0));
#403=DIRECTION('',(0.E0,9.999998285642E-1,5.855524417859E-4));
#404=AXIS2_PLACEMENT_3D('',#401,#402,#403);
#405=TOROIDAL_SURFACE('',#404,2.E0,1.E-1);
#406=ORIENTED_EDGE('',*,*,#395,.T.);
#407=ORIENTED_EDGE('',*,*,#313,.T.);
#408=ORIENTED_EDGE('',*,*,#270,.F.);
#409=ORIENTED_EDGE('',*,*,#310,.F.);
#410=EDGE_LOOP('',(#406,#407,#408,#409));
#411=FACE_OUTER_BOUND('',#410,.F.);
#412=ADVANCED_FACE('',(#411),#405,.T.);
#413=CLOSED_SHELL('',(#204,#219,#233,#246,#261,#276,#290,#302,#317,#332,#347,
#361,#374,#387,#400,#412));
#414=MANIFOLD_SOLID_BREP('',#413);
#416=DIMENSIONAL_EXPONENTS(0.E0,0.E0,0.E0,0.E0,0.E0,0.E0,0.E0);
#418=PLANE_ANGLE_MEASURE_WITH_UNIT(PLANE_ANGLE_MEASURE(1.745329251994E-2),#417);
#419=(CONVERSION_BASED_UNIT('DEGREE',#418)NAMED_UNIT(*)PLANE_ANGLE_UNIT());
#421=UNCERTAINTY_MEASURE_WITH_UNIT(LENGTH_MEASURE(1.E-4),#415,'closure',
'Maximum model space distance between geometric entities at asserted connectivities');
#422=(GEOMETRIC_REPRESENTATION_CONTEXT(3)GLOBAL_UNCERTAINTY_ASSIGNED_CONTEXT((
#421))GLOBAL_UNIT_ASSIGNED_CONTEXT((#415,#419,#420))REPRESENTATION_CONTEXT
('ID1','3'));
#424=APPLICATION_CONTEXT(
'CONFIGURATION CONTROLLED 3D DESIGNS OF MECHANICAL PARTS AND ASSEMBLIES');
#425=APPLICATION_PROTOCOL_DEFINITION('international standard',
'config_control_design',1994,#424);
#426=DESIGN_CONTEXT('',#424,'design');
#427=MECHANICAL_CONTEXT('',#424,'mechanical');
#428=PRODUCT('C61020-A0006-C004-07-7606','C61020-A0006-C004-07-7606',
'NOT SPECIFIED',(#427));
#429=PRODUCT_DEFINITION_FORMATION_WITH_SPECIFIED_SOURCE('37','LAST_VERSION',
#428,.MADE.);
#433=PRODUCT_CATEGORY('part','');
#434=PRODUCT_RELATED_PRODUCT_CATEGORY('detail','',(#428));
#435=PRODUCT_CATEGORY_RELATIONSHIP('','',#433,#434);
#436=SECURITY_CLASSIFICATION_LEVEL('unclassified');
#437=SECURITY_CLASSIFICATION('','',#436);
#438=CC_DESIGN_SECURITY_CLASSIFICATION(#437,(#429));
#439=APPROVAL_STATUS('approved');
#440=APPROVAL(#439,'');
#441=CC_DESIGN_APPROVAL(#440,(#437,#429,#430));
#442=CALENDAR_DATE(118,8,6);
#443=COORDINATED_UNIVERSAL_TIME_OFFSET(2,0,.AHEAD.);
#444=LOCAL_TIME(14,7,3.E0,#443);
#445=DATE_AND_TIME(#442,#444);
#446=APPROVAL_DATE_TIME(#445,#440);
#447=DATE_TIME_ROLE('creation_date');
#448=CC_DESIGN_DATE_AND_TIME_ASSIGNMENT(#445,#447,(#430));
#449=DATE_TIME_ROLE('classification_date');
#450=CC_DESIGN_DATE_AND_TIME_ASSIGNMENT(#445,#449,(#437));
#451=PERSON('UNSPECIFIED','UNSPECIFIED',$,$,$,$);
#452=ORGANIZATION('UNSPECIFIED','UNSPECIFIED','UNSPECIFIED');
#453=PERSON_AND_ORGANIZATION(#451,#452);
#454=APPROVAL_ROLE('approver');
#455=APPROVAL_PERSON_ORGANIZATION(#453,#440,#454);
#456=PERSON_AND_ORGANIZATION_ROLE('creator');
#457=CC_DESIGN_PERSON_AND_ORGANIZATION_ASSIGNMENT(#453,#456,(#429,#430));
#458=PERSON_AND_ORGANIZATION_ROLE('design_supplier');
#459=CC_DESIGN_PERSON_AND_ORGANIZATION_ASSIGNMENT(#453,#458,(#429));
#460=PERSON_AND_ORGANIZATION_ROLE('classification_officer');
#461=CC_DESIGN_PERSON_AND_ORGANIZATION_ASSIGNMENT(#453,#460,(#437));
#462=PERSON_AND_ORGANIZATION_ROLE('design_owner');
#463=CC_DESIGN_PERSON_AND_ORGANIZATION_ASSIGNMENT(#453,#462,(#428));
#5=CIRCLE('',#4,3.097727272730E0);
#10=CIRCLE('',#9,1.952272727276E0);
#15=CIRCLE('',#14,1.E-1);
#20=CIRCLE('',#19,1.E-1);
#25=CIRCLE('',#24,3.097727272730E0);
#30=CIRCLE('',#29,1.2E0);
#35=CIRCLE('',#34,1.952272727276E0);
#40=CIRCLE('',#39,1.2E0);
#45=CIRCLE('',#44,1.E-1);
#50=CIRCLE('',#49,1.9E0);
#59=CIRCLE('',#58,1.9E0);
#68=CIRCLE('',#67,1.9E0);
#73=CIRCLE('',#72,1.9E0);
#78=CIRCLE('',#77,1.E-1);
#83=CIRCLE('',#82,1.E-1);
#88=CIRCLE('',#87,3.097727272732E0);
#93=CIRCLE('',#92,1.952272727280E0);
#98=CIRCLE('',#97,1.E-1);
#103=CIRCLE('',#102,3.15E0);
#108=CIRCLE('',#107,3.15E0);
#113=CIRCLE('',#112,3.15E0);
#122=CIRCLE('',#121,3.15E0);
#131=CIRCLE('',#130,1.E-1);
#136=CIRCLE('',#135,3.097727272732E0);
#141=CIRCLE('',#140,1.2E0);
#146=CIRCLE('',#145,1.952272727280E0);
#151=CIRCLE('',#150,1.2E0);
#156=CIRCLE('',#155,1.E-1);
#194=EDGE_CURVE('',#159,#160,#5,.T.);
#196=EDGE_CURVE('',#159,#171,#40,.T.);
#198=EDGE_CURVE('',#171,#172,#10,.T.);
#200=EDGE_CURVE('',#160,#172,#30,.T.);
#211=EDGE_CURVE('',#160,#164,#20,.T.);
#213=EDGE_CURVE('',#163,#164,#103,.T.);
#215=EDGE_CURVE('',#159,#163,#15,.T.);
#225=EDGE_CURVE('',#160,#159,#25,.T.);
#228=EDGE_CURVE('',#164,#163,#113,.T.);
#241=EDGE_CURVE('',#172,#171,#35,.T.);
#252=EDGE_CURVE('',#168,#167,#50,.T.);
#254=EDGE_CURVE('',#167,#171,#78,.T.);
#257=EDGE_CURVE('',#168,#172,#45,.T.);
#268=EDGE_CURVE('',#168,#188,#54,.T.);
#270=EDGE_CURVE('',#188,#187,#59,.T.);
#272=EDGE_CURVE('',#167,#187,#63,.T.);
#282=EDGE_CURVE('',#167,#168,#68,.T.);
#285=EDGE_CURVE('',#187,#188,#73,.T.);
#308=EDGE_CURVE('',#183,#184,#93,.T.);
#310=EDGE_CURVE('',#184,#188,#156,.T.);
#313=EDGE_CURVE('',#183,#187,#83,.T.);
#323=EDGE_CURVE('',#179,#180,#88,.T.);
#325=EDGE_CURVE('',#184,#180,#151,.T.);
#328=EDGE_CURVE('',#183,#179,#141,.T.);
#338=EDGE_CURVE('',#175,#176,#108,.T.);
#340=EDGE_CURVE('',#176,#180,#131,.T.);
#343=EDGE_CURVE('',#175,#179,#98,.T.);
#354=EDGE_CURVE('',#176,#164,#126,.T.);
#357=EDGE_CURVE('',#175,#163,#117,.T.);
#369=EDGE_CURVE('',#176,#175,#122,.T.);
#382=EDGE_CURVE('',#180,#179,#136,.T.);
#395=EDGE_CURVE('',#184,#183,#146,.T.);
#415=(LENGTH_UNIT()NAMED_UNIT(*)SI_UNIT(.MILLI.,.METRE.));
#417=(NAMED_UNIT(*)PLANE_ANGLE_UNIT()SI_UNIT($,.RADIAN.));
#420=(NAMED_UNIT(*)SI_UNIT($,.STERADIAN.)SOLID_ANGLE_UNIT());
#423=ADVANCED_BREP_SHAPE_REPRESENTATION('',(#414),#422);
#430=PRODUCT_DEFINITION('design','',#429,#426);
#431=PRODUCT_DEFINITION_SHAPE('','SHAPE FOR C61020-A0006-C004-07-7606.',#430);
#432=SHAPE_DEFINITION_REPRESENTATION(#431,#423);
ENDSEC;
END-ISO-10303-21;
