ISO-10303-21;
HEADER;
FILE_DESCRIPTION((''),'2;1');
FILE_NAME('C61036-A0126-C008-01-7606','2018-05-10T',('ec7121'),(''),
'PRO/ENGINEER BY PARAMETRIC TECHNOLOGY CORPORATION, 2014000',
'PRO/ENGINEER BY PARAMETRIC TECHNOLOGY CORPORATION, 2014000','');
FILE_SCHEMA(('CONFIG_CONTROL_DESIGN'));
ENDSEC;
DATA;
#1=DIRECTION('',(0.E0,0.E0,1.E0));
#2=VECTOR('',#1,8.2E0);
#3=CARTESIAN_POINT('',(-3.75E0,-3.75E0,-1.28E1));
#4=LINE('',#3,#2);
#5=DIRECTION('',(-1.E0,0.E0,0.E0));
#6=VECTOR('',#5,4.E0);
#7=CARTESIAN_POINT('',(-4.25E0,-3.75E0,-4.1E0));
#8=LINE('',#7,#6);
#9=DIRECTION('',(0.E0,0.E0,-1.E0));
#10=VECTOR('',#9,8.2E0);
#11=CARTESIAN_POINT('',(-8.75E0,-3.75E0,-4.6E0));
#12=LINE('',#11,#10);
#13=DIRECTION('',(-1.E0,0.E0,0.E0));
#14=VECTOR('',#13,3.75E0);
#15=CARTESIAN_POINT('',(-8.75E0,-3.75E0,-1.28E1));
#16=LINE('',#15,#14);
#17=DIRECTION('',(0.E0,0.E0,1.E0));
#18=VECTOR('',#17,1.08E1);
#19=CARTESIAN_POINT('',(-1.25E1,-3.75E0,-1.28E1));
#20=LINE('',#19,#18);
#21=CARTESIAN_POINT('',(-1.05E1,-3.75E0,-2.E0));
#22=DIRECTION('',(0.E0,-1.E0,0.E0));
#23=DIRECTION('',(0.E0,0.E0,1.E0));
#24=AXIS2_PLACEMENT_3D('',#21,#22,#23);
#26=DIRECTION('',(1.E0,0.E0,0.E0));
#27=VECTOR('',#26,2.1E1);
#28=CARTESIAN_POINT('',(-1.05E1,-3.75E0,0.E0));
#29=LINE('',#28,#27);
#30=CARTESIAN_POINT('',(1.05E1,-3.75E0,-2.E0));
#31=DIRECTION('',(0.E0,-1.E0,0.E0));
#32=DIRECTION('',(1.E0,0.E0,0.E0));
#33=AXIS2_PLACEMENT_3D('',#30,#31,#32);
#35=DIRECTION('',(0.E0,0.E0,-1.E0));
#36=VECTOR('',#35,1.08E1);
#37=CARTESIAN_POINT('',(1.25E1,-3.75E0,-2.E0));
#38=LINE('',#37,#36);
#39=DIRECTION('',(-1.E0,0.E0,0.E0));
#40=VECTOR('',#39,3.75E0);
#41=CARTESIAN_POINT('',(1.25E1,-3.75E0,-1.28E1));
#42=LINE('',#41,#40);
#43=DIRECTION('',(0.E0,0.E0,1.E0));
#44=VECTOR('',#43,8.2E0);
#45=CARTESIAN_POINT('',(8.75E0,-3.75E0,-1.28E1));
#46=LINE('',#45,#44);
#47=DIRECTION('',(-1.E0,0.E0,0.E0));
#48=VECTOR('',#47,4.E0);
#49=CARTESIAN_POINT('',(8.25E0,-3.75E0,-4.1E0));
#50=LINE('',#49,#48);
#51=DIRECTION('',(0.E0,0.E0,-1.E0));
#52=VECTOR('',#51,8.2E0);
#53=CARTESIAN_POINT('',(3.75E0,-3.75E0,-4.6E0));
#54=LINE('',#53,#52);
#55=DIRECTION('',(-1.E0,0.E0,0.E0));
#56=VECTOR('',#55,7.5E0);
#57=CARTESIAN_POINT('',(3.75E0,-3.75E0,-1.28E1));
#58=LINE('',#57,#56);
#59=DIRECTION('',(0.E0,1.E0,0.E0));
#60=VECTOR('',#59,7.5E0);
#61=CARTESIAN_POINT('',(-3.75E0,-3.75E0,-4.6E0));
#62=LINE('',#61,#60);
#63=DIRECTION('',(0.E0,1.E0,0.E0));
#64=VECTOR('',#63,7.5E0);
#65=CARTESIAN_POINT('',(-3.75E0,-3.75E0,-1.28E1));
#66=LINE('',#65,#64);
#67=CARTESIAN_POINT('',(-4.25E0,-3.75E0,-4.6E0));
#68=DIRECTION('',(0.E0,1.E0,0.E0));
#69=DIRECTION('',(0.E0,0.E0,1.E0));
#70=AXIS2_PLACEMENT_3D('',#67,#68,#69);
#72=CARTESIAN_POINT('',(-4.25E0,3.75E0,-4.6E0));
#73=DIRECTION('',(0.E0,-1.E0,0.E0));
#74=DIRECTION('',(1.E0,0.E0,0.E0));
#75=AXIS2_PLACEMENT_3D('',#72,#73,#74);
#77=DIRECTION('',(0.E0,1.E0,0.E0));
#78=VECTOR('',#77,7.5E0);
#79=CARTESIAN_POINT('',(-8.25E0,-3.75E0,-4.1E0));
#80=LINE('',#79,#78);
#81=DIRECTION('',(0.E0,1.E0,0.E0));
#82=VECTOR('',#81,7.5E0);
#83=CARTESIAN_POINT('',(-4.25E0,-3.75E0,-4.1E0));
#84=LINE('',#83,#82);
#85=CARTESIAN_POINT('',(-8.25E0,-3.75E0,-4.6E0));
#86=DIRECTION('',(0.E0,1.E0,0.E0));
#87=DIRECTION('',(-1.E0,0.E0,0.E0));
#88=AXIS2_PLACEMENT_3D('',#85,#86,#87);
#90=CARTESIAN_POINT('',(-8.25E0,3.75E0,-4.6E0));
#91=DIRECTION('',(0.E0,-1.E0,0.E0));
#92=DIRECTION('',(0.E0,0.E0,1.E0));
#93=AXIS2_PLACEMENT_3D('',#90,#91,#92);
#95=DIRECTION('',(0.E0,1.E0,0.E0));
#96=VECTOR('',#95,7.5E0);
#97=CARTESIAN_POINT('',(-8.75E0,-3.75E0,-4.6E0));
#98=LINE('',#97,#96);
#99=DIRECTION('',(-1.E0,0.E0,0.E0));
#100=VECTOR('',#99,4.E0);
#101=CARTESIAN_POINT('',(-4.25E0,3.75E0,-4.1E0));
#102=LINE('',#101,#100);
#103=DIRECTION('',(0.E0,0.E0,1.E0));
#104=VECTOR('',#103,8.2E0);
#105=CARTESIAN_POINT('',(-3.75E0,3.75E0,-1.28E1));
#106=LINE('',#105,#104);
#107=DIRECTION('',(-1.E0,0.E0,0.E0));
#108=VECTOR('',#107,7.5E0);
#109=CARTESIAN_POINT('',(3.75E0,3.75E0,-1.28E1));
#110=LINE('',#109,#108);
#111=DIRECTION('',(0.E0,0.E0,-1.E0));
#112=VECTOR('',#111,8.2E0);
#113=CARTESIAN_POINT('',(3.75E0,3.75E0,-4.6E0));
#114=LINE('',#113,#112);
#115=DIRECTION('',(-1.E0,0.E0,0.E0));
#116=VECTOR('',#115,4.E0);
#117=CARTESIAN_POINT('',(8.25E0,3.75E0,-4.1E0));
#118=LINE('',#117,#116);
#119=DIRECTION('',(0.E0,0.E0,1.E0));
#120=VECTOR('',#119,8.2E0);
#121=CARTESIAN_POINT('',(8.75E0,3.75E0,-1.28E1));
#122=LINE('',#121,#120);
#123=DIRECTION('',(-1.E0,0.E0,0.E0));
#124=VECTOR('',#123,3.75E0);
#125=CARTESIAN_POINT('',(1.25E1,3.75E0,-1.28E1));
#126=LINE('',#125,#124);
#127=DIRECTION('',(0.E0,0.E0,-1.E0));
#128=VECTOR('',#127,1.08E1);
#129=CARTESIAN_POINT('',(1.25E1,3.75E0,-2.E0));
#130=LINE('',#129,#128);
#131=CARTESIAN_POINT('',(1.05E1,3.75E0,-2.E0));
#132=DIRECTION('',(0.E0,1.E0,0.E0));
#133=DIRECTION('',(0.E0,0.E0,1.E0));
#134=AXIS2_PLACEMENT_3D('',#131,#132,#133);
#136=DIRECTION('',(1.E0,0.E0,0.E0));
#137=VECTOR('',#136,2.1E1);
#138=CARTESIAN_POINT('',(-1.05E1,3.75E0,0.E0));
#139=LINE('',#138,#137);
#140=CARTESIAN_POINT('',(-1.05E1,3.75E0,-2.E0));
#141=DIRECTION('',(0.E0,1.E0,0.E0));
#142=DIRECTION('',(-1.E0,0.E0,0.E0));
#143=AXIS2_PLACEMENT_3D('',#140,#141,#142);
#145=DIRECTION('',(0.E0,0.E0,1.E0));
#146=VECTOR('',#145,1.08E1);
#147=CARTESIAN_POINT('',(-1.25E1,3.75E0,-1.28E1));
#148=LINE('',#147,#146);
#149=DIRECTION('',(-1.E0,0.E0,0.E0));
#150=VECTOR('',#149,3.75E0);
#151=CARTESIAN_POINT('',(-8.75E0,3.75E0,-1.28E1));
#152=LINE('',#151,#150);
#153=DIRECTION('',(0.E0,0.E0,-1.E0));
#154=VECTOR('',#153,8.2E0);
#155=CARTESIAN_POINT('',(-8.75E0,3.75E0,-4.6E0));
#156=LINE('',#155,#154);
#157=DIRECTION('',(0.E0,1.E0,0.E0));
#158=VECTOR('',#157,7.5E0);
#159=CARTESIAN_POINT('',(3.75E0,-3.75E0,-1.28E1));
#160=LINE('',#159,#158);
#161=DIRECTION('',(0.E0,1.E0,0.E0));
#162=VECTOR('',#161,7.5E0);
#163=CARTESIAN_POINT('',(3.75E0,-3.75E0,-4.6E0));
#164=LINE('',#163,#162);
#165=CARTESIAN_POINT('',(4.25E0,-3.75E0,-4.6E0));
#166=DIRECTION('',(0.E0,1.E0,0.E0));
#167=DIRECTION('',(-1.E0,0.E0,0.E0));
#168=AXIS2_PLACEMENT_3D('',#165,#166,#167);
#170=CARTESIAN_POINT('',(4.25E0,3.75E0,-4.6E0));
#171=DIRECTION('',(0.E0,-1.E0,0.E0));
#172=DIRECTION('',(0.E0,0.E0,1.E0));
#173=AXIS2_PLACEMENT_3D('',#170,#171,#172);
#175=DIRECTION('',(0.E0,1.E0,0.E0));
#176=VECTOR('',#175,7.5E0);
#177=CARTESIAN_POINT('',(4.25E0,-3.75E0,-4.1E0));
#178=LINE('',#177,#176);
#179=DIRECTION('',(0.E0,1.E0,0.E0));
#180=VECTOR('',#179,7.5E0);
#181=CARTESIAN_POINT('',(8.25E0,-3.75E0,-4.1E0));
#182=LINE('',#181,#180);
#183=CARTESIAN_POINT('',(8.25E0,-3.75E0,-4.6E0));
#184=DIRECTION('',(0.E0,1.E0,0.E0));
#185=DIRECTION('',(0.E0,0.E0,1.E0));
#186=AXIS2_PLACEMENT_3D('',#183,#184,#185);
#188=CARTESIAN_POINT('',(8.25E0,3.75E0,-4.6E0));
#189=DIRECTION('',(0.E0,-1.E0,0.E0));
#190=DIRECTION('',(1.E0,0.E0,0.E0));
#191=AXIS2_PLACEMENT_3D('',#188,#189,#190);
#193=DIRECTION('',(0.E0,1.E0,0.E0));
#194=VECTOR('',#193,7.5E0);
#195=CARTESIAN_POINT('',(8.75E0,-3.75E0,-4.6E0));
#196=LINE('',#195,#194);
#197=DIRECTION('',(0.E0,1.E0,0.E0));
#198=VECTOR('',#197,7.5E0);
#199=CARTESIAN_POINT('',(8.75E0,-3.75E0,-1.28E1));
#200=LINE('',#199,#198);
#201=DIRECTION('',(0.E0,1.E0,0.E0));
#202=VECTOR('',#201,7.5E0);
#203=CARTESIAN_POINT('',(1.25E1,-3.75E0,-1.28E1));
#204=LINE('',#203,#202);
#205=DIRECTION('',(0.E0,-1.E0,0.E0));
#206=VECTOR('',#205,7.5E0);
#207=CARTESIAN_POINT('',(1.25E1,3.75E0,-2.E0));
#208=LINE('',#207,#206);
#209=DIRECTION('',(0.E0,-1.E0,0.E0));
#210=VECTOR('',#209,7.5E0);
#211=CARTESIAN_POINT('',(-1.05E1,3.75E0,0.E0));
#212=LINE('',#211,#210);
#213=DIRECTION('',(0.E0,-1.E0,0.E0));
#214=VECTOR('',#213,7.5E0);
#215=CARTESIAN_POINT('',(1.05E1,3.75E0,0.E0));
#216=LINE('',#215,#214);
#217=DIRECTION('',(0.E0,-1.E0,0.E0));
#218=VECTOR('',#217,7.5E0);
#219=CARTESIAN_POINT('',(-1.25E1,3.75E0,-2.E0));
#220=LINE('',#219,#218);
#221=DIRECTION('',(0.E0,1.E0,0.E0));
#222=VECTOR('',#221,7.5E0);
#223=CARTESIAN_POINT('',(-1.25E1,-3.75E0,-1.28E1));
#224=LINE('',#223,#222);
#225=DIRECTION('',(0.E0,1.E0,0.E0));
#226=VECTOR('',#225,7.5E0);
#227=CARTESIAN_POINT('',(-8.75E0,-3.75E0,-1.28E1));
#228=LINE('',#227,#226);
#229=CARTESIAN_POINT('',(-1.25E1,3.75E0,-2.E0));
#230=CARTESIAN_POINT('',(-1.25E1,-3.75E0,-2.E0));
#231=VERTEX_POINT('',#229);
#232=VERTEX_POINT('',#230);
#233=CARTESIAN_POINT('',(-1.05E1,3.75E0,0.E0));
#234=VERTEX_POINT('',#233);
#235=CARTESIAN_POINT('',(-1.05E1,-3.75E0,0.E0));
#236=VERTEX_POINT('',#235);
#237=CARTESIAN_POINT('',(1.05E1,3.75E0,0.E0));
#238=CARTESIAN_POINT('',(1.05E1,-3.75E0,0.E0));
#239=VERTEX_POINT('',#237);
#240=VERTEX_POINT('',#238);
#241=CARTESIAN_POINT('',(1.25E1,3.75E0,-2.E0));
#242=VERTEX_POINT('',#241);
#243=CARTESIAN_POINT('',(1.25E1,-3.75E0,-2.E0));
#244=VERTEX_POINT('',#243);
#245=CARTESIAN_POINT('',(-1.25E1,-3.75E0,-1.28E1));
#246=VERTEX_POINT('',#245);
#247=CARTESIAN_POINT('',(1.25E1,-3.75E0,-1.28E1));
#248=VERTEX_POINT('',#247);
#249=CARTESIAN_POINT('',(-1.25E1,3.75E0,-1.28E1));
#250=VERTEX_POINT('',#249);
#251=CARTESIAN_POINT('',(1.25E1,3.75E0,-1.28E1));
#252=VERTEX_POINT('',#251);
#253=CARTESIAN_POINT('',(8.75E0,-3.75E0,-1.28E1));
#254=VERTEX_POINT('',#253);
#255=CARTESIAN_POINT('',(3.75E0,-3.75E0,-1.28E1));
#256=CARTESIAN_POINT('',(-3.75E0,-3.75E0,-1.28E1));
#257=VERTEX_POINT('',#255);
#258=VERTEX_POINT('',#256);
#259=CARTESIAN_POINT('',(-8.75E0,-3.75E0,-1.28E1));
#260=VERTEX_POINT('',#259);
#261=CARTESIAN_POINT('',(8.75E0,3.75E0,-1.28E1));
#262=VERTEX_POINT('',#261);
#263=CARTESIAN_POINT('',(3.75E0,3.75E0,-1.28E1));
#264=CARTESIAN_POINT('',(-3.75E0,3.75E0,-1.28E1));
#265=VERTEX_POINT('',#263);
#266=VERTEX_POINT('',#264);
#267=CARTESIAN_POINT('',(-8.75E0,3.75E0,-1.28E1));
#268=VERTEX_POINT('',#267);
#269=CARTESIAN_POINT('',(-8.75E0,-3.75E0,-4.6E0));
#270=CARTESIAN_POINT('',(-8.75E0,3.75E0,-4.6E0));
#271=VERTEX_POINT('',#269);
#272=VERTEX_POINT('',#270);
#273=CARTESIAN_POINT('',(-8.25E0,-3.75E0,-4.1E0));
#274=CARTESIAN_POINT('',(-8.25E0,3.75E0,-4.1E0));
#275=VERTEX_POINT('',#273);
#276=VERTEX_POINT('',#274);
#277=CARTESIAN_POINT('',(-4.25E0,-3.75E0,-4.1E0));
#278=CARTESIAN_POINT('',(-4.25E0,3.75E0,-4.1E0));
#279=VERTEX_POINT('',#277);
#280=VERTEX_POINT('',#278);
#281=CARTESIAN_POINT('',(-3.75E0,-3.75E0,-4.6E0));
#282=CARTESIAN_POINT('',(-3.75E0,3.75E0,-4.6E0));
#283=VERTEX_POINT('',#281);
#284=VERTEX_POINT('',#282);
#285=CARTESIAN_POINT('',(3.75E0,-3.75E0,-4.6E0));
#286=CARTESIAN_POINT('',(3.75E0,3.75E0,-4.6E0));
#287=VERTEX_POINT('',#285);
#288=VERTEX_POINT('',#286);
#289=CARTESIAN_POINT('',(4.25E0,-3.75E0,-4.1E0));
#290=CARTESIAN_POINT('',(4.25E0,3.75E0,-4.1E0));
#291=VERTEX_POINT('',#289);
#292=VERTEX_POINT('',#290);
#293=CARTESIAN_POINT('',(8.25E0,-3.75E0,-4.1E0));
#294=CARTESIAN_POINT('',(8.25E0,3.75E0,-4.1E0));
#295=VERTEX_POINT('',#293);
#296=VERTEX_POINT('',#294);
#297=CARTESIAN_POINT('',(8.75E0,-3.75E0,-4.6E0));
#298=CARTESIAN_POINT('',(8.75E0,3.75E0,-4.6E0));
#299=VERTEX_POINT('',#297);
#300=VERTEX_POINT('',#298);
#301=CARTESIAN_POINT('',(0.E0,-3.75E0,0.E0));
#302=DIRECTION('',(0.E0,1.E0,0.E0));
#303=DIRECTION('',(1.E0,0.E0,0.E0));
#304=AXIS2_PLACEMENT_3D('',#301,#302,#303);
#305=PLANE('',#304);
#307=ORIENTED_EDGE('',*,*,#306,.T.);
#309=ORIENTED_EDGE('',*,*,#308,.F.);
#311=ORIENTED_EDGE('',*,*,#310,.T.);
#313=ORIENTED_EDGE('',*,*,#312,.F.);
#315=ORIENTED_EDGE('',*,*,#314,.T.);
#317=ORIENTED_EDGE('',*,*,#316,.T.);
#319=ORIENTED_EDGE('',*,*,#318,.T.);
#321=ORIENTED_EDGE('',*,*,#320,.F.);
#323=ORIENTED_EDGE('',*,*,#322,.T.);
#325=ORIENTED_EDGE('',*,*,#324,.F.);
#327=ORIENTED_EDGE('',*,*,#326,.T.);
#329=ORIENTED_EDGE('',*,*,#328,.T.);
#331=ORIENTED_EDGE('',*,*,#330,.T.);
#333=ORIENTED_EDGE('',*,*,#332,.F.);
#335=ORIENTED_EDGE('',*,*,#334,.T.);
#337=ORIENTED_EDGE('',*,*,#336,.F.);
#339=ORIENTED_EDGE('',*,*,#338,.T.);
#341=ORIENTED_EDGE('',*,*,#340,.T.);
#342=EDGE_LOOP('',(#307,#309,#311,#313,#315,#317,#319,#321,#323,#325,#327,#329,
#331,#333,#335,#337,#339,#341));
#343=FACE_OUTER_BOUND('',#342,.F.);
#344=ADVANCED_FACE('',(#343),#305,.F.);
#345=CARTESIAN_POINT('',(-3.75E0,-3.75E0,-1.28E1));
#346=DIRECTION('',(-1.E0,0.E0,0.E0));
#347=DIRECTION('',(0.E0,0.E0,1.E0));
#348=AXIS2_PLACEMENT_3D('',#345,#346,#347);
#349=PLANE('',#348);
#351=ORIENTED_EDGE('',*,*,#350,.F.);
#352=ORIENTED_EDGE('',*,*,#306,.F.);
#354=ORIENTED_EDGE('',*,*,#353,.T.);
#356=ORIENTED_EDGE('',*,*,#355,.T.);
#357=EDGE_LOOP('',(#351,#352,#354,#356));
#358=FACE_OUTER_BOUND('',#357,.F.);
#359=ADVANCED_FACE('',(#358),#349,.T.);
#360=CARTESIAN_POINT('',(-4.25E0,-3.75133704E0,-4.6E0));
#361=DIRECTION('',(0.E0,1.E0,0.E0));
#362=DIRECTION('',(0.E0,0.E0,1.E0));
#363=AXIS2_PLACEMENT_3D('',#360,#361,#362);
#364=CYLINDRICAL_SURFACE('',#363,5.E-1);
#366=ORIENTED_EDGE('',*,*,#365,.F.);
#367=ORIENTED_EDGE('',*,*,#308,.T.);
#368=ORIENTED_EDGE('',*,*,#350,.T.);
#370=ORIENTED_EDGE('',*,*,#369,.T.);
#371=EDGE_LOOP('',(#366,#367,#368,#370));
#372=FACE_OUTER_BOUND('',#371,.F.);
#373=ADVANCED_FACE('',(#372),#364,.F.);
#374=CARTESIAN_POINT('',(-3.75E0,-3.75E0,-4.1E0));
#375=DIRECTION('',(0.E0,0.E0,-1.E0));
#376=DIRECTION('',(-1.E0,0.E0,0.E0));
#377=AXIS2_PLACEMENT_3D('',#374,#375,#376);
#378=PLANE('',#377);
#380=ORIENTED_EDGE('',*,*,#379,.F.);
#381=ORIENTED_EDGE('',*,*,#310,.F.);
#382=ORIENTED_EDGE('',*,*,#365,.T.);
#384=ORIENTED_EDGE('',*,*,#383,.T.);
#385=EDGE_LOOP('',(#380,#381,#382,#384));
#386=FACE_OUTER_BOUND('',#385,.F.);
#387=ADVANCED_FACE('',(#386),#378,.T.);
#388=CARTESIAN_POINT('',(-8.25E0,-3.75133704E0,-4.6E0));
#389=DIRECTION('',(0.E0,1.E0,0.E0));
#390=DIRECTION('',(-1.E0,0.E0,0.E0));
#391=AXIS2_PLACEMENT_3D('',#388,#389,#390);
#392=CYLINDRICAL_SURFACE('',#391,5.E-1);
#394=ORIENTED_EDGE('',*,*,#393,.F.);
#395=ORIENTED_EDGE('',*,*,#312,.T.);
#396=ORIENTED_EDGE('',*,*,#379,.T.);
#398=ORIENTED_EDGE('',*,*,#397,.T.);
#399=EDGE_LOOP('',(#394,#395,#396,#398));
#400=FACE_OUTER_BOUND('',#399,.F.);
#401=ADVANCED_FACE('',(#400),#392,.F.);
#402=CARTESIAN_POINT('',(-8.75E0,-3.75E0,-4.1E0));
#403=DIRECTION('',(1.E0,0.E0,0.E0));
#404=DIRECTION('',(0.E0,0.E0,-1.E0));
#405=AXIS2_PLACEMENT_3D('',#402,#403,#404);
#406=PLANE('',#405);
#407=ORIENTED_EDGE('',*,*,#393,.T.);
#409=ORIENTED_EDGE('',*,*,#408,.T.);
#411=ORIENTED_EDGE('',*,*,#410,.F.);
#412=ORIENTED_EDGE('',*,*,#314,.F.);
#413=EDGE_LOOP('',(#407,#409,#411,#412));
#414=FACE_OUTER_BOUND('',#413,.F.);
#415=ADVANCED_FACE('',(#414),#406,.T.);
#416=CARTESIAN_POINT('',(0.E0,3.75E0,0.E0));
#417=DIRECTION('',(0.E0,1.E0,0.E0));
#418=DIRECTION('',(1.E0,0.E0,0.E0));
#419=AXIS2_PLACEMENT_3D('',#416,#417,#418);
#420=PLANE('',#419);
#421=ORIENTED_EDGE('',*,*,#383,.F.);
#422=ORIENTED_EDGE('',*,*,#369,.F.);
#423=ORIENTED_EDGE('',*,*,#355,.F.);
#425=ORIENTED_EDGE('',*,*,#424,.F.);
#427=ORIENTED_EDGE('',*,*,#426,.F.);
#429=ORIENTED_EDGE('',*,*,#428,.F.);
#431=ORIENTED_EDGE('',*,*,#430,.F.);
#433=ORIENTED_EDGE('',*,*,#432,.F.);
#435=ORIENTED_EDGE('',*,*,#434,.F.);
#437=ORIENTED_EDGE('',*,*,#436,.F.);
#439=ORIENTED_EDGE('',*,*,#438,.F.);
#441=ORIENTED_EDGE('',*,*,#440,.F.);
#443=ORIENTED_EDGE('',*,*,#442,.F.);
#445=ORIENTED_EDGE('',*,*,#444,.F.);
#447=ORIENTED_EDGE('',*,*,#446,.F.);
#449=ORIENTED_EDGE('',*,*,#448,.F.);
#450=ORIENTED_EDGE('',*,*,#408,.F.);
#451=ORIENTED_EDGE('',*,*,#397,.F.);
#452=EDGE_LOOP('',(#421,#422,#423,#425,#427,#429,#431,#433,#435,#437,#439,#441,
#443,#445,#447,#449,#450,#451));
#453=FACE_OUTER_BOUND('',#452,.F.);
#454=ADVANCED_FACE('',(#453),#420,.T.);
#455=CARTESIAN_POINT('',(3.75E0,-3.75E0,-1.28E1));
#456=DIRECTION('',(0.E0,0.E0,-1.E0));
#457=DIRECTION('',(-1.E0,0.E0,0.E0));
#458=AXIS2_PLACEMENT_3D('',#455,#456,#457);
#459=PLANE('',#458);
#460=ORIENTED_EDGE('',*,*,#340,.F.);
#462=ORIENTED_EDGE('',*,*,#461,.T.);
#463=ORIENTED_EDGE('',*,*,#424,.T.);
#464=ORIENTED_EDGE('',*,*,#353,.F.);
#465=EDGE_LOOP('',(#460,#462,#463,#464));
#466=FACE_OUTER_BOUND('',#465,.F.);
#467=ADVANCED_FACE('',(#466),#459,.T.);
#468=CARTESIAN_POINT('',(3.75E0,-3.75E0,-4.1E0));
#469=DIRECTION('',(1.E0,0.E0,0.E0));
#470=DIRECTION('',(0.E0,0.E0,-1.E0));
#471=AXIS2_PLACEMENT_3D('',#468,#469,#470);
#472=PLANE('',#471);
#474=ORIENTED_EDGE('',*,*,#473,.T.);
#475=ORIENTED_EDGE('',*,*,#426,.T.);
#476=ORIENTED_EDGE('',*,*,#461,.F.);
#477=ORIENTED_EDGE('',*,*,#338,.F.);
#478=EDGE_LOOP('',(#474,#475,#476,#477));
#479=FACE_OUTER_BOUND('',#478,.F.);
#480=ADVANCED_FACE('',(#479),#472,.T.);
#481=CARTESIAN_POINT('',(4.25E0,-3.75133704E0,-4.6E0));
#482=DIRECTION('',(0.E0,1.E0,0.E0));
#483=DIRECTION('',(-1.E0,0.E0,0.E0));
#484=AXIS2_PLACEMENT_3D('',#481,#482,#483);
#485=CYLINDRICAL_SURFACE('',#484,5.E-1);
#486=ORIENTED_EDGE('',*,*,#473,.F.);
#487=ORIENTED_EDGE('',*,*,#336,.T.);
#489=ORIENTED_EDGE('',*,*,#488,.T.);
#490=ORIENTED_EDGE('',*,*,#428,.T.);
#491=EDGE_LOOP('',(#486,#487,#489,#490));
#492=FACE_OUTER_BOUND('',#491,.F.);
#493=ADVANCED_FACE('',(#492),#485,.F.);
#494=CARTESIAN_POINT('',(8.75E0,-3.75E0,-4.1E0));
#495=DIRECTION('',(0.E0,0.E0,-1.E0));
#496=DIRECTION('',(-1.E0,0.E0,0.E0));
#497=AXIS2_PLACEMENT_3D('',#494,#495,#496);
#498=PLANE('',#497);
#499=ORIENTED_EDGE('',*,*,#488,.F.);
#500=ORIENTED_EDGE('',*,*,#334,.F.);
#502=ORIENTED_EDGE('',*,*,#501,.T.);
#503=ORIENTED_EDGE('',*,*,#430,.T.);
#504=EDGE_LOOP('',(#499,#500,#502,#503));
#505=FACE_OUTER_BOUND('',#504,.F.);
#506=ADVANCED_FACE('',(#505),#498,.T.);
#507=CARTESIAN_POINT('',(8.25E0,-3.75133704E0,-4.6E0));
#508=DIRECTION('',(0.E0,1.E0,0.E0));
#509=DIRECTION('',(0.E0,0.E0,1.E0));
#510=AXIS2_PLACEMENT_3D('',#507,#508,#509);
#511=CYLINDRICAL_SURFACE('',#510,5.E-1);
#512=ORIENTED_EDGE('',*,*,#501,.F.);
#513=ORIENTED_EDGE('',*,*,#332,.T.);
#515=ORIENTED_EDGE('',*,*,#514,.T.);
#516=ORIENTED_EDGE('',*,*,#432,.T.);
#517=EDGE_LOOP('',(#512,#513,#515,#516));
#518=FACE_OUTER_BOUND('',#517,.F.);
#519=ADVANCED_FACE('',(#518),#511,.F.);
#520=CARTESIAN_POINT('',(8.75E0,-3.75E0,-1.28E1));
#521=DIRECTION('',(-1.E0,0.E0,0.E0));
#522=DIRECTION('',(0.E0,0.E0,1.E0));
#523=AXIS2_PLACEMENT_3D('',#520,#521,#522);
#524=PLANE('',#523);
#525=ORIENTED_EDGE('',*,*,#514,.F.);
#526=ORIENTED_EDGE('',*,*,#330,.F.);
#528=ORIENTED_EDGE('',*,*,#527,.T.);
#529=ORIENTED_EDGE('',*,*,#434,.T.);
#530=EDGE_LOOP('',(#525,#526,#528,#529));
#531=FACE_OUTER_BOUND('',#530,.F.);
#532=ADVANCED_FACE('',(#531),#524,.T.);
#533=CARTESIAN_POINT('',(1.25E1,-3.75E0,-1.28E1));
#534=DIRECTION('',(0.E0,0.E0,-1.E0));
#535=DIRECTION('',(-1.E0,0.E0,0.E0));
#536=AXIS2_PLACEMENT_3D('',#533,#534,#535);
#537=PLANE('',#536);
#538=ORIENTED_EDGE('',*,*,#328,.F.);
#540=ORIENTED_EDGE('',*,*,#539,.T.);
#541=ORIENTED_EDGE('',*,*,#436,.T.);
#542=ORIENTED_EDGE('',*,*,#527,.F.);
#543=EDGE_LOOP('',(#538,#540,#541,#542));
#544=FACE_OUTER_BOUND('',#543,.F.);
#545=ADVANCED_FACE('',(#544),#537,.T.);
#546=CARTESIAN_POINT('',(1.25E1,-3.75E0,0.E0));
#547=DIRECTION('',(1.E0,0.E0,0.E0));
#548=DIRECTION('',(0.E0,0.E0,-1.E0));
#549=AXIS2_PLACEMENT_3D('',#546,#547,#548);
#550=PLANE('',#549);
#552=ORIENTED_EDGE('',*,*,#551,.F.);
#553=ORIENTED_EDGE('',*,*,#438,.T.);
#554=ORIENTED_EDGE('',*,*,#539,.F.);
#555=ORIENTED_EDGE('',*,*,#326,.F.);
#556=EDGE_LOOP('',(#552,#553,#554,#555));
#557=FACE_OUTER_BOUND('',#556,.F.);
#558=ADVANCED_FACE('',(#557),#550,.T.);
#559=CARTESIAN_POINT('',(1.05E1,3.7515648E0,-2.E0));
#560=DIRECTION('',(0.E0,-1.E0,0.E0));
#561=DIRECTION('',(1.E0,0.E0,0.E0));
#562=AXIS2_PLACEMENT_3D('',#559,#560,#561);
#563=CYLINDRICAL_SURFACE('',#562,2.E0);
#565=ORIENTED_EDGE('',*,*,#564,.F.);
#566=ORIENTED_EDGE('',*,*,#440,.T.);
#567=ORIENTED_EDGE('',*,*,#551,.T.);
#568=ORIENTED_EDGE('',*,*,#324,.T.);
#569=EDGE_LOOP('',(#565,#566,#567,#568));
#570=FACE_OUTER_BOUND('',#569,.F.);
#571=ADVANCED_FACE('',(#570),#563,.T.);
#572=CARTESIAN_POINT('',(-1.25E1,-3.75E0,0.E0));
#573=DIRECTION('',(0.E0,0.E0,1.E0));
#574=DIRECTION('',(1.E0,0.E0,0.E0));
#575=AXIS2_PLACEMENT_3D('',#572,#573,#574);
#576=PLANE('',#575);
#578=ORIENTED_EDGE('',*,*,#577,.F.);
#579=ORIENTED_EDGE('',*,*,#442,.T.);
#580=ORIENTED_EDGE('',*,*,#564,.T.);
#581=ORIENTED_EDGE('',*,*,#322,.F.);
#582=EDGE_LOOP('',(#578,#579,#580,#581));
#583=FACE_OUTER_BOUND('',#582,.F.);
#584=ADVANCED_FACE('',(#583),#576,.T.);
#585=CARTESIAN_POINT('',(-1.05E1,3.7515648E0,-2.E0));
#586=DIRECTION('',(0.E0,-1.E0,0.E0));
#587=DIRECTION('',(0.E0,0.E0,1.E0));
#588=AXIS2_PLACEMENT_3D('',#585,#586,#587);
#589=CYLINDRICAL_SURFACE('',#588,2.E0);
#591=ORIENTED_EDGE('',*,*,#590,.F.);
#592=ORIENTED_EDGE('',*,*,#444,.T.);
#593=ORIENTED_EDGE('',*,*,#577,.T.);
#594=ORIENTED_EDGE('',*,*,#320,.T.);
#595=EDGE_LOOP('',(#591,#592,#593,#594));
#596=FACE_OUTER_BOUND('',#595,.F.);
#597=ADVANCED_FACE('',(#596),#589,.T.);
#598=CARTESIAN_POINT('',(-1.25E1,-3.75E0,-1.28E1));
#599=DIRECTION('',(-1.E0,0.E0,0.E0));
#600=DIRECTION('',(0.E0,0.E0,1.E0));
#601=AXIS2_PLACEMENT_3D('',#598,#599,#600);
#602=PLANE('',#601);
#603=ORIENTED_EDGE('',*,*,#590,.T.);
#604=ORIENTED_EDGE('',*,*,#318,.F.);
#606=ORIENTED_EDGE('',*,*,#605,.T.);
#607=ORIENTED_EDGE('',*,*,#446,.T.);
#608=EDGE_LOOP('',(#603,#604,#606,#607));
#609=FACE_OUTER_BOUND('',#608,.F.);
#610=ADVANCED_FACE('',(#609),#602,.T.);
#611=CARTESIAN_POINT('',(-8.75E0,-3.75E0,-1.28E1));
#612=DIRECTION('',(0.E0,0.E0,-1.E0));
#613=DIRECTION('',(-1.E0,0.E0,0.E0));
#614=AXIS2_PLACEMENT_3D('',#611,#612,#613);
#615=PLANE('',#614);
#616=ORIENTED_EDGE('',*,*,#316,.F.);
#617=ORIENTED_EDGE('',*,*,#410,.T.);
#618=ORIENTED_EDGE('',*,*,#448,.T.);
#619=ORIENTED_EDGE('',*,*,#605,.F.);
#620=EDGE_LOOP('',(#616,#617,#618,#619));
#621=FACE_OUTER_BOUND('',#620,.F.);
#622=ADVANCED_FACE('',(#621),#615,.T.);
#623=CLOSED_SHELL('',(#344,#359,#373,#387,#401,#415,#454,#467,#480,#493,#506,
#519,#532,#545,#558,#571,#584,#597,#610,#622));
#624=MANIFOLD_SOLID_BREP('',#623);
#626=DIMENSIONAL_EXPONENTS(0.E0,0.E0,0.E0,0.E0,0.E0,0.E0,0.E0);
#628=PLANE_ANGLE_MEASURE_WITH_UNIT(PLANE_ANGLE_MEASURE(1.745329251994E-2),#627);
#629=(CONVERSION_BASED_UNIT('DEGREE',#628)NAMED_UNIT(*)PLANE_ANGLE_UNIT());
#631=UNCERTAINTY_MEASURE_WITH_UNIT(LENGTH_MEASURE(1.E-4),#625,'closure',
'Maximum model space distance between geometric entities at asserted connectivities');
#632=(GEOMETRIC_REPRESENTATION_CONTEXT(3)GLOBAL_UNCERTAINTY_ASSIGNED_CONTEXT((
#631))GLOBAL_UNIT_ASSIGNED_CONTEXT((#625,#629,#630))REPRESENTATION_CONTEXT
('ID1','3'));
#634=APPLICATION_CONTEXT(
'CONFIGURATION CONTROLLED 3D DESIGNS OF MECHANICAL PARTS AND ASSEMBLIES');
#635=APPLICATION_PROTOCOL_DEFINITION('international standard',
'config_control_design',1994,#634);
#636=DESIGN_CONTEXT('',#634,'design');
#637=MECHANICAL_CONTEXT('',#634,'mechanical');
#638=PRODUCT('C61036-A0126-C008-01-7606','C61036-A0126-C008-01-7606',
'NOT SPECIFIED',(#637));
#639=PRODUCT_DEFINITION_FORMATION_WITH_SPECIFIED_SOURCE('4','LAST_VERSION',#638,
.MADE.);
#643=PRODUCT_CATEGORY('part','');
#644=PRODUCT_RELATED_PRODUCT_CATEGORY('detail','',(#638));
#645=PRODUCT_CATEGORY_RELATIONSHIP('','',#643,#644);
#646=SECURITY_CLASSIFICATION_LEVEL('unclassified');
#647=SECURITY_CLASSIFICATION('','',#646);
#648=CC_DESIGN_SECURITY_CLASSIFICATION(#647,(#639));
#649=APPROVAL_STATUS('approved');
#650=APPROVAL(#649,'');
#651=CC_DESIGN_APPROVAL(#650,(#647,#639,#640));
#652=CALENDAR_DATE(118,10,5);
#653=COORDINATED_UNIVERSAL_TIME_OFFSET(2,0,.AHEAD.);
#654=LOCAL_TIME(15,58,5.4E1,#653);
#655=DATE_AND_TIME(#652,#654);
#656=APPROVAL_DATE_TIME(#655,#650);
#657=DATE_TIME_ROLE('creation_date');
#658=CC_DESIGN_DATE_AND_TIME_ASSIGNMENT(#655,#657,(#640));
#659=DATE_TIME_ROLE('classification_date');
#660=CC_DESIGN_DATE_AND_TIME_ASSIGNMENT(#655,#659,(#647));
#661=PERSON('UNSPECIFIED','UNSPECIFIED',$,$,$,$);
#662=ORGANIZATION('UNSPECIFIED','UNSPECIFIED','UNSPECIFIED');
#663=PERSON_AND_ORGANIZATION(#661,#662);
#664=APPROVAL_ROLE('approver');
#665=APPROVAL_PERSON_ORGANIZATION(#663,#650,#664);
#666=PERSON_AND_ORGANIZATION_ROLE('creator');
#667=CC_DESIGN_PERSON_AND_ORGANIZATION_ASSIGNMENT(#663,#666,(#639,#640));
#668=PERSON_AND_ORGANIZATION_ROLE('design_supplier');
#669=CC_DESIGN_PERSON_AND_ORGANIZATION_ASSIGNMENT(#663,#668,(#639));
#670=PERSON_AND_ORGANIZATION_ROLE('classification_officer');
#671=CC_DESIGN_PERSON_AND_ORGANIZATION_ASSIGNMENT(#663,#670,(#647));
#672=PERSON_AND_ORGANIZATION_ROLE('design_owner');
#673=CC_DESIGN_PERSON_AND_ORGANIZATION_ASSIGNMENT(#663,#672,(#638));
#25=CIRCLE('',#24,2.E0);
#34=CIRCLE('',#33,2.E0);
#71=CIRCLE('',#70,5.E-1);
#76=CIRCLE('',#75,5.E-1);
#89=CIRCLE('',#88,5.E-1);
#94=CIRCLE('',#93,5.E-1);
#135=CIRCLE('',#134,2.E0);
#144=CIRCLE('',#143,2.E0);
#169=CIRCLE('',#168,5.E-1);
#174=CIRCLE('',#173,5.E-1);
#187=CIRCLE('',#186,5.E-1);
#192=CIRCLE('',#191,5.E-1);
#306=EDGE_CURVE('',#258,#283,#4,.T.);
#308=EDGE_CURVE('',#279,#283,#71,.T.);
#310=EDGE_CURVE('',#279,#275,#8,.T.);
#312=EDGE_CURVE('',#271,#275,#89,.T.);
#314=EDGE_CURVE('',#271,#260,#12,.T.);
#316=EDGE_CURVE('',#260,#246,#16,.T.);
#318=EDGE_CURVE('',#246,#232,#20,.T.);
#320=EDGE_CURVE('',#236,#232,#25,.T.);
#322=EDGE_CURVE('',#236,#240,#29,.T.);
#324=EDGE_CURVE('',#244,#240,#34,.T.);
#326=EDGE_CURVE('',#244,#248,#38,.T.);
#328=EDGE_CURVE('',#248,#254,#42,.T.);
#330=EDGE_CURVE('',#254,#299,#46,.T.);
#332=EDGE_CURVE('',#295,#299,#187,.T.);
#334=EDGE_CURVE('',#295,#291,#50,.T.);
#336=EDGE_CURVE('',#287,#291,#169,.T.);
#338=EDGE_CURVE('',#287,#257,#54,.T.);
#340=EDGE_CURVE('',#257,#258,#58,.T.);
#350=EDGE_CURVE('',#283,#284,#62,.T.);
#353=EDGE_CURVE('',#258,#266,#66,.T.);
#355=EDGE_CURVE('',#266,#284,#106,.T.);
#365=EDGE_CURVE('',#279,#280,#84,.T.);
#369=EDGE_CURVE('',#284,#280,#76,.T.);
#379=EDGE_CURVE('',#275,#276,#80,.T.);
#383=EDGE_CURVE('',#280,#276,#102,.T.);
#393=EDGE_CURVE('',#271,#272,#98,.T.);
#397=EDGE_CURVE('',#276,#272,#94,.T.);
#408=EDGE_CURVE('',#272,#268,#156,.T.);
#410=EDGE_CURVE('',#260,#268,#228,.T.);
#424=EDGE_CURVE('',#265,#266,#110,.T.);
#426=EDGE_CURVE('',#288,#265,#114,.T.);
#428=EDGE_CURVE('',#292,#288,#174,.T.);
#430=EDGE_CURVE('',#296,#292,#118,.T.);
#432=EDGE_CURVE('',#300,#296,#192,.T.);
#434=EDGE_CURVE('',#262,#300,#122,.T.);
#436=EDGE_CURVE('',#252,#262,#126,.T.);
#438=EDGE_CURVE('',#242,#252,#130,.T.);
#440=EDGE_CURVE('',#239,#242,#135,.T.);
#442=EDGE_CURVE('',#234,#239,#139,.T.);
#444=EDGE_CURVE('',#231,#234,#144,.T.);
#446=EDGE_CURVE('',#250,#231,#148,.T.);
#448=EDGE_CURVE('',#268,#250,#152,.T.);
#461=EDGE_CURVE('',#257,#265,#160,.T.);
#473=EDGE_CURVE('',#287,#288,#164,.T.);
#488=EDGE_CURVE('',#291,#292,#178,.T.);
#501=EDGE_CURVE('',#295,#296,#182,.T.);
#514=EDGE_CURVE('',#299,#300,#196,.T.);
#527=EDGE_CURVE('',#254,#262,#200,.T.);
#539=EDGE_CURVE('',#248,#252,#204,.T.);
#551=EDGE_CURVE('',#242,#244,#208,.T.);
#564=EDGE_CURVE('',#239,#240,#216,.T.);
#577=EDGE_CURVE('',#234,#236,#212,.T.);
#590=EDGE_CURVE('',#231,#232,#220,.T.);
#605=EDGE_CURVE('',#246,#250,#224,.T.);
#625=(LENGTH_UNIT()NAMED_UNIT(*)SI_UNIT(.MILLI.,.METRE.));
#627=(NAMED_UNIT(*)PLANE_ANGLE_UNIT()SI_UNIT($,.RADIAN.));
#630=(NAMED_UNIT(*)SI_UNIT($,.STERADIAN.)SOLID_ANGLE_UNIT());
#633=ADVANCED_BREP_SHAPE_REPRESENTATION('',(#624),#632);
#640=PRODUCT_DEFINITION('design','',#639,#636);
#641=PRODUCT_DEFINITION_SHAPE('','SHAPE FOR C61036-A0126-C008-01-7606.',#640);
#642=SHAPE_DEFINITION_REPRESENTATION(#641,#633);
ENDSEC;
END-ISO-10303-21;
