ISO-10303-21;
HEADER;
FILE_DESCRIPTION((''),'2;1');
FILE_NAME('C61036-A0495-C005-01-7606','2018-06-04T',('ec7121'),(''),
'PRO/ENGINEER BY PARAMETRIC TECHNOLOGY CORPORATION, 2014000',
'PRO/ENGINEER BY PARAMETRIC TECHNOLOGY CORPORATION, 2014000','');
FILE_SCHEMA(('CONFIG_CONTROL_DESIGN'));
ENDSEC;
DATA;
#1=DIRECTION('',(0.E0,0.E0,-1.E0));
#2=VECTOR('',#1,8.9E1);
#3=CARTESIAN_POINT('',(6.3E1,-1.E1,-2.E0));
#4=LINE('',#3,#2);
#5=DIRECTION('',(-1.E0,0.E0,0.E0));
#6=VECTOR('',#5,2.8E1);
#7=CARTESIAN_POINT('',(6.3E1,-1.E1,-9.1E1));
#8=LINE('',#7,#6);
#9=DIRECTION('',(0.E0,0.E0,1.E0));
#10=VECTOR('',#9,6.2E1);
#11=CARTESIAN_POINT('',(3.5E1,-1.E1,-9.1E1));
#12=LINE('',#11,#10);
#13=DIRECTION('',(-1.E0,0.E0,0.E0));
#14=VECTOR('',#13,6.8E1);
#15=CARTESIAN_POINT('',(3.4E1,-1.E1,-2.8E1));
#16=LINE('',#15,#14);
#17=DIRECTION('',(0.E0,0.E0,-1.E0));
#18=VECTOR('',#17,6.2E1);
#19=CARTESIAN_POINT('',(-3.5E1,-1.E1,-2.9E1));
#20=LINE('',#19,#18);
#21=DIRECTION('',(-1.E0,0.E0,0.E0));
#22=VECTOR('',#21,2.8E1);
#23=CARTESIAN_POINT('',(-3.5E1,-1.E1,-9.1E1));
#24=LINE('',#23,#22);
#25=DIRECTION('',(0.E0,0.E0,1.E0));
#26=VECTOR('',#25,8.9E1);
#27=CARTESIAN_POINT('',(-6.3E1,-1.E1,-9.1E1));
#28=LINE('',#27,#26);
#29=DIRECTION('',(1.E0,0.E0,0.E0));
#30=VECTOR('',#29,1.22E2);
#31=CARTESIAN_POINT('',(-6.1E1,-1.E1,0.E0));
#32=LINE('',#31,#30);
#33=DIRECTION('',(0.E0,-1.E0,0.E0));
#34=VECTOR('',#33,2.E1);
#35=CARTESIAN_POINT('',(6.1E1,1.E1,0.E0));
#36=LINE('',#35,#34);
#37=CARTESIAN_POINT('',(6.1E1,1.E1,-2.E0));
#38=DIRECTION('',(0.E0,1.E0,0.E0));
#39=DIRECTION('',(0.E0,0.E0,1.E0));
#40=AXIS2_PLACEMENT_3D('',#37,#38,#39);
#42=DIRECTION('',(0.E0,-1.E0,0.E0));
#43=VECTOR('',#42,2.E1);
#44=CARTESIAN_POINT('',(6.3E1,1.E1,-2.E0));
#45=LINE('',#44,#43);
#46=CARTESIAN_POINT('',(6.1E1,-1.E1,-2.E0));
#47=DIRECTION('',(0.E0,-1.E0,0.E0));
#48=DIRECTION('',(1.E0,0.E0,0.E0));
#49=AXIS2_PLACEMENT_3D('',#46,#47,#48);
#51=DIRECTION('',(0.E0,-1.E0,0.E0));
#52=VECTOR('',#51,2.E1);
#53=CARTESIAN_POINT('',(-6.3E1,1.E1,-2.E0));
#54=LINE('',#53,#52);
#55=CARTESIAN_POINT('',(-6.1E1,1.E1,-2.E0));
#56=DIRECTION('',(0.E0,1.E0,0.E0));
#57=DIRECTION('',(-1.E0,0.E0,0.E0));
#58=AXIS2_PLACEMENT_3D('',#55,#56,#57);
#60=DIRECTION('',(0.E0,-1.E0,0.E0));
#61=VECTOR('',#60,2.E1);
#62=CARTESIAN_POINT('',(-6.1E1,1.E1,0.E0));
#63=LINE('',#62,#61);
#64=CARTESIAN_POINT('',(-6.1E1,-1.E1,-2.E0));
#65=DIRECTION('',(0.E0,-1.E0,0.E0));
#66=DIRECTION('',(0.E0,0.E0,1.E0));
#67=AXIS2_PLACEMENT_3D('',#64,#65,#66);
#69=DIRECTION('',(0.E0,1.E0,0.E0));
#70=VECTOR('',#69,2.E1);
#71=CARTESIAN_POINT('',(-6.3E1,-1.E1,-9.1E1));
#72=LINE('',#71,#70);
#73=DIRECTION('',(0.E0,1.E0,0.E0));
#74=VECTOR('',#73,2.E1);
#75=CARTESIAN_POINT('',(-3.5E1,-1.E1,-9.1E1));
#76=LINE('',#75,#74);
#77=DIRECTION('',(0.E0,1.E0,0.E0));
#78=VECTOR('',#77,2.E1);
#79=CARTESIAN_POINT('',(-3.5E1,-1.E1,-2.9E1));
#80=LINE('',#79,#78);
#81=CARTESIAN_POINT('',(-3.4E1,-1.E1,-2.9E1));
#82=DIRECTION('',(0.E0,1.E0,0.E0));
#83=DIRECTION('',(-1.E0,0.E0,0.E0));
#84=AXIS2_PLACEMENT_3D('',#81,#82,#83);
#86=DIRECTION('',(0.E0,1.E0,0.E0));
#87=VECTOR('',#86,2.E1);
#88=CARTESIAN_POINT('',(-3.4E1,-1.E1,-2.8E1));
#89=LINE('',#88,#87);
#90=CARTESIAN_POINT('',(-3.4E1,1.E1,-2.9E1));
#91=DIRECTION('',(0.E0,-1.E0,0.E0));
#92=DIRECTION('',(0.E0,0.E0,1.E0));
#93=AXIS2_PLACEMENT_3D('',#90,#91,#92);
#95=DIRECTION('',(0.E0,1.E0,0.E0));
#96=VECTOR('',#95,2.E1);
#97=CARTESIAN_POINT('',(3.4E1,-1.E1,-2.8E1));
#98=LINE('',#97,#96);
#99=CARTESIAN_POINT('',(3.4E1,-1.E1,-2.9E1));
#100=DIRECTION('',(0.E0,1.E0,0.E0));
#101=DIRECTION('',(0.E0,0.E0,1.E0));
#102=AXIS2_PLACEMENT_3D('',#99,#100,#101);
#104=DIRECTION('',(0.E0,1.E0,0.E0));
#105=VECTOR('',#104,2.E1);
#106=CARTESIAN_POINT('',(3.5E1,-1.E1,-2.9E1));
#107=LINE('',#106,#105);
#108=CARTESIAN_POINT('',(3.4E1,1.E1,-2.9E1));
#109=DIRECTION('',(0.E0,-1.E0,0.E0));
#110=DIRECTION('',(1.E0,0.E0,0.E0));
#111=AXIS2_PLACEMENT_3D('',#108,#109,#110);
#113=DIRECTION('',(0.E0,1.E0,0.E0));
#114=VECTOR('',#113,2.E1);
#115=CARTESIAN_POINT('',(3.5E1,-1.E1,-9.1E1));
#116=LINE('',#115,#114);
#117=DIRECTION('',(0.E0,1.E0,0.E0));
#118=VECTOR('',#117,2.E1);
#119=CARTESIAN_POINT('',(6.3E1,-1.E1,-9.1E1));
#120=LINE('',#119,#118);
#121=DIRECTION('',(1.E0,0.E0,0.E0));
#122=VECTOR('',#121,1.22E2);
#123=CARTESIAN_POINT('',(-6.1E1,1.E1,0.E0));
#124=LINE('',#123,#122);
#125=DIRECTION('',(0.E0,0.E0,1.E0));
#126=VECTOR('',#125,8.9E1);
#127=CARTESIAN_POINT('',(-6.3E1,1.E1,-9.1E1));
#128=LINE('',#127,#126);
#129=DIRECTION('',(-1.E0,0.E0,0.E0));
#130=VECTOR('',#129,2.8E1);
#131=CARTESIAN_POINT('',(-3.5E1,1.E1,-9.1E1));
#132=LINE('',#131,#130);
#133=DIRECTION('',(0.E0,0.E0,-1.E0));
#134=VECTOR('',#133,6.2E1);
#135=CARTESIAN_POINT('',(-3.5E1,1.E1,-2.9E1));
#136=LINE('',#135,#134);
#137=DIRECTION('',(-1.E0,0.E0,0.E0));
#138=VECTOR('',#137,6.8E1);
#139=CARTESIAN_POINT('',(3.4E1,1.E1,-2.8E1));
#140=LINE('',#139,#138);
#141=DIRECTION('',(0.E0,0.E0,1.E0));
#142=VECTOR('',#141,6.2E1);
#143=CARTESIAN_POINT('',(3.5E1,1.E1,-9.1E1));
#144=LINE('',#143,#142);
#145=DIRECTION('',(-1.E0,0.E0,0.E0));
#146=VECTOR('',#145,2.8E1);
#147=CARTESIAN_POINT('',(6.3E1,1.E1,-9.1E1));
#148=LINE('',#147,#146);
#149=DIRECTION('',(0.E0,0.E0,-1.E0));
#150=VECTOR('',#149,8.9E1);
#151=CARTESIAN_POINT('',(6.3E1,1.E1,-2.E0));
#152=LINE('',#151,#150);
#153=CARTESIAN_POINT('',(6.3E1,-1.E1,-9.1E1));
#154=CARTESIAN_POINT('',(3.5E1,-1.E1,-9.1E1));
#155=VERTEX_POINT('',#153);
#156=VERTEX_POINT('',#154);
#157=CARTESIAN_POINT('',(-3.5E1,-1.E1,-9.1E1));
#158=CARTESIAN_POINT('',(-6.3E1,-1.E1,-9.1E1));
#159=VERTEX_POINT('',#157);
#160=VERTEX_POINT('',#158);
#161=CARTESIAN_POINT('',(6.3E1,1.E1,-9.1E1));
#162=CARTESIAN_POINT('',(3.5E1,1.E1,-9.1E1));
#163=VERTEX_POINT('',#161);
#164=VERTEX_POINT('',#162);
#165=CARTESIAN_POINT('',(-3.5E1,1.E1,-9.1E1));
#166=CARTESIAN_POINT('',(-6.3E1,1.E1,-9.1E1));
#167=VERTEX_POINT('',#165);
#168=VERTEX_POINT('',#166);
#169=CARTESIAN_POINT('',(-3.5E1,-1.E1,-2.9E1));
#170=CARTESIAN_POINT('',(-3.5E1,1.E1,-2.9E1));
#171=VERTEX_POINT('',#169);
#172=VERTEX_POINT('',#170);
#173=CARTESIAN_POINT('',(-3.4E1,-1.E1,-2.8E1));
#174=CARTESIAN_POINT('',(-3.4E1,1.E1,-2.8E1));
#175=VERTEX_POINT('',#173);
#176=VERTEX_POINT('',#174);
#177=CARTESIAN_POINT('',(3.4E1,-1.E1,-2.8E1));
#178=CARTESIAN_POINT('',(3.4E1,1.E1,-2.8E1));
#179=VERTEX_POINT('',#177);
#180=VERTEX_POINT('',#178);
#181=CARTESIAN_POINT('',(3.5E1,-1.E1,-2.9E1));
#182=CARTESIAN_POINT('',(3.5E1,1.E1,-2.9E1));
#183=VERTEX_POINT('',#181);
#184=VERTEX_POINT('',#182);
#185=CARTESIAN_POINT('',(6.1E1,1.E1,0.E0));
#186=CARTESIAN_POINT('',(6.1E1,-1.E1,0.E0));
#187=VERTEX_POINT('',#185);
#188=VERTEX_POINT('',#186);
#189=CARTESIAN_POINT('',(6.3E1,1.E1,-2.E0));
#190=VERTEX_POINT('',#189);
#191=CARTESIAN_POINT('',(6.3E1,-1.E1,-2.E0));
#192=VERTEX_POINT('',#191);
#193=CARTESIAN_POINT('',(-6.3E1,1.E1,-2.E0));
#194=CARTESIAN_POINT('',(-6.3E1,-1.E1,-2.E0));
#195=VERTEX_POINT('',#193);
#196=VERTEX_POINT('',#194);
#197=CARTESIAN_POINT('',(-6.1E1,1.E1,0.E0));
#198=VERTEX_POINT('',#197);
#199=CARTESIAN_POINT('',(-6.1E1,-1.E1,0.E0));
#200=VERTEX_POINT('',#199);
#201=CARTESIAN_POINT('',(0.E0,-1.E1,0.E0));
#202=DIRECTION('',(0.E0,1.E0,0.E0));
#203=DIRECTION('',(1.E0,0.E0,0.E0));
#204=AXIS2_PLACEMENT_3D('',#201,#202,#203);
#205=PLANE('',#204);
#207=ORIENTED_EDGE('',*,*,#206,.F.);
#209=ORIENTED_EDGE('',*,*,#208,.T.);
#211=ORIENTED_EDGE('',*,*,#210,.T.);
#213=ORIENTED_EDGE('',*,*,#212,.T.);
#215=ORIENTED_EDGE('',*,*,#214,.F.);
#217=ORIENTED_EDGE('',*,*,#216,.T.);
#219=ORIENTED_EDGE('',*,*,#218,.F.);
#221=ORIENTED_EDGE('',*,*,#220,.T.);
#223=ORIENTED_EDGE('',*,*,#222,.T.);
#225=ORIENTED_EDGE('',*,*,#224,.T.);
#227=ORIENTED_EDGE('',*,*,#226,.F.);
#229=ORIENTED_EDGE('',*,*,#228,.T.);
#230=EDGE_LOOP('',(#207,#209,#211,#213,#215,#217,#219,#221,#223,#225,#227,
#229));
#231=FACE_OUTER_BOUND('',#230,.F.);
#232=ADVANCED_FACE('',(#231),#205,.F.);
#233=CARTESIAN_POINT('',(6.1E1,1.00015648E1,-2.E0));
#234=DIRECTION('',(0.E0,-1.E0,0.E0));
#235=DIRECTION('',(1.E0,0.E0,0.E0));
#236=AXIS2_PLACEMENT_3D('',#233,#234,#235);
#237=CYLINDRICAL_SURFACE('',#236,2.E0);
#239=ORIENTED_EDGE('',*,*,#238,.F.);
#241=ORIENTED_EDGE('',*,*,#240,.T.);
#243=ORIENTED_EDGE('',*,*,#242,.T.);
#244=ORIENTED_EDGE('',*,*,#206,.T.);
#245=EDGE_LOOP('',(#239,#241,#243,#244));
#246=FACE_OUTER_BOUND('',#245,.F.);
#247=ADVANCED_FACE('',(#246),#237,.T.);
#248=CARTESIAN_POINT('',(-6.3E1,-1.E1,0.E0));
#249=DIRECTION('',(0.E0,0.E0,1.E0));
#250=DIRECTION('',(1.E0,0.E0,0.E0));
#251=AXIS2_PLACEMENT_3D('',#248,#249,#250);
#252=PLANE('',#251);
#253=ORIENTED_EDGE('',*,*,#238,.T.);
#254=ORIENTED_EDGE('',*,*,#228,.F.);
#256=ORIENTED_EDGE('',*,*,#255,.F.);
#258=ORIENTED_EDGE('',*,*,#257,.T.);
#259=EDGE_LOOP('',(#253,#254,#256,#258));
#260=FACE_OUTER_BOUND('',#259,.F.);
#261=ADVANCED_FACE('',(#260),#252,.T.);
#262=CARTESIAN_POINT('',(-6.1E1,1.00015648E1,-2.E0));
#263=DIRECTION('',(0.E0,-1.E0,0.E0));
#264=DIRECTION('',(0.E0,0.E0,1.E0));
#265=AXIS2_PLACEMENT_3D('',#262,#263,#264);
#266=CYLINDRICAL_SURFACE('',#265,2.E0);
#268=ORIENTED_EDGE('',*,*,#267,.F.);
#270=ORIENTED_EDGE('',*,*,#269,.T.);
#271=ORIENTED_EDGE('',*,*,#255,.T.);
#272=ORIENTED_EDGE('',*,*,#226,.T.);
#273=EDGE_LOOP('',(#268,#270,#271,#272));
#274=FACE_OUTER_BOUND('',#273,.F.);
#275=ADVANCED_FACE('',(#274),#266,.T.);
#276=CARTESIAN_POINT('',(-6.3E1,-1.E1,-9.1E1));
#277=DIRECTION('',(-1.E0,0.E0,0.E0));
#278=DIRECTION('',(0.E0,0.E0,1.E0));
#279=AXIS2_PLACEMENT_3D('',#276,#277,#278);
#280=PLANE('',#279);
#281=ORIENTED_EDGE('',*,*,#267,.T.);
#282=ORIENTED_EDGE('',*,*,#224,.F.);
#284=ORIENTED_EDGE('',*,*,#283,.T.);
#286=ORIENTED_EDGE('',*,*,#285,.T.);
#287=EDGE_LOOP('',(#281,#282,#284,#286));
#288=FACE_OUTER_BOUND('',#287,.F.);
#289=ADVANCED_FACE('',(#288),#280,.T.);
#290=CARTESIAN_POINT('',(-3.5E1,-1.E1,-9.1E1));
#291=DIRECTION('',(0.E0,0.E0,-1.E0));
#292=DIRECTION('',(-1.E0,0.E0,0.E0));
#293=AXIS2_PLACEMENT_3D('',#290,#291,#292);
#294=PLANE('',#293);
#295=ORIENTED_EDGE('',*,*,#222,.F.);
#297=ORIENTED_EDGE('',*,*,#296,.T.);
#299=ORIENTED_EDGE('',*,*,#298,.T.);
#300=ORIENTED_EDGE('',*,*,#283,.F.);
#301=EDGE_LOOP('',(#295,#297,#299,#300));
#302=FACE_OUTER_BOUND('',#301,.F.);
#303=ADVANCED_FACE('',(#302),#294,.T.);
#304=CARTESIAN_POINT('',(-3.5E1,-1.E1,-2.8E1));
#305=DIRECTION('',(1.E0,0.E0,0.E0));
#306=DIRECTION('',(0.E0,0.E0,-1.E0));
#307=AXIS2_PLACEMENT_3D('',#304,#305,#306);
#308=PLANE('',#307);
#310=ORIENTED_EDGE('',*,*,#309,.T.);
#312=ORIENTED_EDGE('',*,*,#311,.T.);
#313=ORIENTED_EDGE('',*,*,#296,.F.);
#314=ORIENTED_EDGE('',*,*,#220,.F.);
#315=EDGE_LOOP('',(#310,#312,#313,#314));
#316=FACE_OUTER_BOUND('',#315,.F.);
#317=ADVANCED_FACE('',(#316),#308,.T.);
#318=CARTESIAN_POINT('',(-3.4E1,-1.000133704E1,-2.9E1));
#319=DIRECTION('',(0.E0,1.E0,0.E0));
#320=DIRECTION('',(-1.E0,0.E0,0.E0));
#321=AXIS2_PLACEMENT_3D('',#318,#319,#320);
#322=CYLINDRICAL_SURFACE('',#321,1.E0);
#323=ORIENTED_EDGE('',*,*,#309,.F.);
#324=ORIENTED_EDGE('',*,*,#218,.T.);
#326=ORIENTED_EDGE('',*,*,#325,.T.);
#328=ORIENTED_EDGE('',*,*,#327,.T.);
#329=EDGE_LOOP('',(#323,#324,#326,#328));
#330=FACE_OUTER_BOUND('',#329,.F.);
#331=ADVANCED_FACE('',(#330),#322,.F.);
#332=CARTESIAN_POINT('',(3.5E1,-1.E1,-2.8E1));
#333=DIRECTION('',(0.E0,0.E0,-1.E0));
#334=DIRECTION('',(-1.E0,0.E0,0.E0));
#335=AXIS2_PLACEMENT_3D('',#332,#333,#334);
#336=PLANE('',#335);
#337=ORIENTED_EDGE('',*,*,#325,.F.);
#338=ORIENTED_EDGE('',*,*,#216,.F.);
#340=ORIENTED_EDGE('',*,*,#339,.T.);
#342=ORIENTED_EDGE('',*,*,#341,.T.);
#343=EDGE_LOOP('',(#337,#338,#340,#342));
#344=FACE_OUTER_BOUND('',#343,.F.);
#345=ADVANCED_FACE('',(#344),#336,.T.);
#346=CARTESIAN_POINT('',(3.4E1,-1.000133704E1,-2.9E1));
#347=DIRECTION('',(0.E0,1.E0,0.E0));
#348=DIRECTION('',(0.E0,0.E0,1.E0));
#349=AXIS2_PLACEMENT_3D('',#346,#347,#348);
#350=CYLINDRICAL_SURFACE('',#349,1.E0);
#351=ORIENTED_EDGE('',*,*,#339,.F.);
#352=ORIENTED_EDGE('',*,*,#214,.T.);
#354=ORIENTED_EDGE('',*,*,#353,.T.);
#356=ORIENTED_EDGE('',*,*,#355,.T.);
#357=EDGE_LOOP('',(#351,#352,#354,#356));
#358=FACE_OUTER_BOUND('',#357,.F.);
#359=ADVANCED_FACE('',(#358),#350,.F.);
#360=CARTESIAN_POINT('',(3.5E1,-1.E1,-9.1E1));
#361=DIRECTION('',(-1.E0,0.E0,0.E0));
#362=DIRECTION('',(0.E0,0.E0,1.E0));
#363=AXIS2_PLACEMENT_3D('',#360,#361,#362);
#364=PLANE('',#363);
#365=ORIENTED_EDGE('',*,*,#353,.F.);
#366=ORIENTED_EDGE('',*,*,#212,.F.);
#368=ORIENTED_EDGE('',*,*,#367,.T.);
#370=ORIENTED_EDGE('',*,*,#369,.T.);
#371=EDGE_LOOP('',(#365,#366,#368,#370));
#372=FACE_OUTER_BOUND('',#371,.F.);
#373=ADVANCED_FACE('',(#372),#364,.T.);
#374=CARTESIAN_POINT('',(6.3E1,-1.E1,-9.1E1));
#375=DIRECTION('',(0.E0,0.E0,-1.E0));
#376=DIRECTION('',(-1.E0,0.E0,0.E0));
#377=AXIS2_PLACEMENT_3D('',#374,#375,#376);
#378=PLANE('',#377);
#379=ORIENTED_EDGE('',*,*,#210,.F.);
#381=ORIENTED_EDGE('',*,*,#380,.T.);
#383=ORIENTED_EDGE('',*,*,#382,.T.);
#384=ORIENTED_EDGE('',*,*,#367,.F.);
#385=EDGE_LOOP('',(#379,#381,#383,#384));
#386=FACE_OUTER_BOUND('',#385,.F.);
#387=ADVANCED_FACE('',(#386),#378,.T.);
#388=CARTESIAN_POINT('',(6.3E1,-1.E1,0.E0));
#389=DIRECTION('',(1.E0,0.E0,0.E0));
#390=DIRECTION('',(0.E0,0.E0,-1.E0));
#391=AXIS2_PLACEMENT_3D('',#388,#389,#390);
#392=PLANE('',#391);
#393=ORIENTED_EDGE('',*,*,#242,.F.);
#395=ORIENTED_EDGE('',*,*,#394,.T.);
#396=ORIENTED_EDGE('',*,*,#380,.F.);
#397=ORIENTED_EDGE('',*,*,#208,.F.);
#398=EDGE_LOOP('',(#393,#395,#396,#397));
#399=FACE_OUTER_BOUND('',#398,.F.);
#400=ADVANCED_FACE('',(#399),#392,.T.);
#401=CARTESIAN_POINT('',(0.E0,1.E1,0.E0));
#402=DIRECTION('',(0.E0,1.E0,0.E0));
#403=DIRECTION('',(1.E0,0.E0,0.E0));
#404=AXIS2_PLACEMENT_3D('',#401,#402,#403);
#405=PLANE('',#404);
#406=ORIENTED_EDGE('',*,*,#240,.F.);
#407=ORIENTED_EDGE('',*,*,#257,.F.);
#408=ORIENTED_EDGE('',*,*,#269,.F.);
#409=ORIENTED_EDGE('',*,*,#285,.F.);
#410=ORIENTED_EDGE('',*,*,#298,.F.);
#411=ORIENTED_EDGE('',*,*,#311,.F.);
#412=ORIENTED_EDGE('',*,*,#327,.F.);
#413=ORIENTED_EDGE('',*,*,#341,.F.);
#414=ORIENTED_EDGE('',*,*,#355,.F.);
#415=ORIENTED_EDGE('',*,*,#369,.F.);
#416=ORIENTED_EDGE('',*,*,#382,.F.);
#417=ORIENTED_EDGE('',*,*,#394,.F.);
#418=EDGE_LOOP('',(#406,#407,#408,#409,#410,#411,#412,#413,#414,#415,#416,
#417));
#419=FACE_OUTER_BOUND('',#418,.F.);
#420=ADVANCED_FACE('',(#419),#405,.T.);
#421=CLOSED_SHELL('',(#232,#247,#261,#275,#289,#303,#317,#331,#345,#359,#373,
#387,#400,#420));
#422=MANIFOLD_SOLID_BREP('',#421);
#424=DIMENSIONAL_EXPONENTS(0.E0,0.E0,0.E0,0.E0,0.E0,0.E0,0.E0);
#426=PLANE_ANGLE_MEASURE_WITH_UNIT(PLANE_ANGLE_MEASURE(1.745329251994E-2),#425);
#427=(CONVERSION_BASED_UNIT('DEGREE',#426)NAMED_UNIT(*)PLANE_ANGLE_UNIT());
#429=UNCERTAINTY_MEASURE_WITH_UNIT(LENGTH_MEASURE(1.E-4),#423,'closure',
'Maximum model space distance between geometric entities at asserted connectivities');
#430=(GEOMETRIC_REPRESENTATION_CONTEXT(3)GLOBAL_UNCERTAINTY_ASSIGNED_CONTEXT((
#429))GLOBAL_UNIT_ASSIGNED_CONTEXT((#423,#427,#428))REPRESENTATION_CONTEXT
('ID1','3'));
#432=APPLICATION_CONTEXT(
'CONFIGURATION CONTROLLED 3D DESIGNS OF MECHANICAL PARTS AND ASSEMBLIES');
#433=APPLICATION_PROTOCOL_DEFINITION('international standard',
'config_control_design',1994,#432);
#434=DESIGN_CONTEXT('',#432,'design');
#435=MECHANICAL_CONTEXT('',#432,'mechanical');
#436=PRODUCT('C61036-A0495-C005-01-7606','C61036-A0495-C005-01-7606',
'NOT SPECIFIED',(#435));
#437=PRODUCT_DEFINITION_FORMATION_WITH_SPECIFIED_SOURCE('16','LAST_VERSION',
#436,.MADE.);
#441=PRODUCT_CATEGORY('part','');
#442=PRODUCT_RELATED_PRODUCT_CATEGORY('detail','',(#436));
#443=PRODUCT_CATEGORY_RELATIONSHIP('','',#441,#442);
#444=SECURITY_CLASSIFICATION_LEVEL('unclassified');
#445=SECURITY_CLASSIFICATION('','',#444);
#446=CC_DESIGN_SECURITY_CLASSIFICATION(#445,(#437));
#447=APPROVAL_STATUS('approved');
#448=APPROVAL(#447,'');
#449=CC_DESIGN_APPROVAL(#448,(#445,#437,#438));
#450=CALENDAR_DATE(118,4,6);
#451=COORDINATED_UNIVERSAL_TIME_OFFSET(2,0,.AHEAD.);
#452=LOCAL_TIME(8,4,5.4E1,#451);
#453=DATE_AND_TIME(#450,#452);
#454=APPROVAL_DATE_TIME(#453,#448);
#455=DATE_TIME_ROLE('creation_date');
#456=CC_DESIGN_DATE_AND_TIME_ASSIGNMENT(#453,#455,(#438));
#457=DATE_TIME_ROLE('classification_date');
#458=CC_DESIGN_DATE_AND_TIME_ASSIGNMENT(#453,#457,(#445));
#459=PERSON('UNSPECIFIED','UNSPECIFIED',$,$,$,$);
#460=ORGANIZATION('UNSPECIFIED','UNSPECIFIED','UNSPECIFIED');
#461=PERSON_AND_ORGANIZATION(#459,#460);
#462=APPROVAL_ROLE('approver');
#463=APPROVAL_PERSON_ORGANIZATION(#461,#448,#462);
#464=PERSON_AND_ORGANIZATION_ROLE('creator');
#465=CC_DESIGN_PERSON_AND_ORGANIZATION_ASSIGNMENT(#461,#464,(#437,#438));
#466=PERSON_AND_ORGANIZATION_ROLE('design_supplier');
#467=CC_DESIGN_PERSON_AND_ORGANIZATION_ASSIGNMENT(#461,#466,(#437));
#468=PERSON_AND_ORGANIZATION_ROLE('classification_officer');
#469=CC_DESIGN_PERSON_AND_ORGANIZATION_ASSIGNMENT(#461,#468,(#445));
#470=PERSON_AND_ORGANIZATION_ROLE('design_owner');
#471=CC_DESIGN_PERSON_AND_ORGANIZATION_ASSIGNMENT(#461,#470,(#436));
#41=CIRCLE('',#40,2.E0);
#50=CIRCLE('',#49,2.E0);
#59=CIRCLE('',#58,2.E0);
#68=CIRCLE('',#67,2.E0);
#85=CIRCLE('',#84,1.E0);
#94=CIRCLE('',#93,1.E0);
#103=CIRCLE('',#102,1.E0);
#112=CIRCLE('',#111,1.E0);
#206=EDGE_CURVE('',#192,#188,#50,.T.);
#208=EDGE_CURVE('',#192,#155,#4,.T.);
#210=EDGE_CURVE('',#155,#156,#8,.T.);
#212=EDGE_CURVE('',#156,#183,#12,.T.);
#214=EDGE_CURVE('',#179,#183,#103,.T.);
#216=EDGE_CURVE('',#179,#175,#16,.T.);
#218=EDGE_CURVE('',#171,#175,#85,.T.);
#220=EDGE_CURVE('',#171,#159,#20,.T.);
#222=EDGE_CURVE('',#159,#160,#24,.T.);
#224=EDGE_CURVE('',#160,#196,#28,.T.);
#226=EDGE_CURVE('',#200,#196,#68,.T.);
#228=EDGE_CURVE('',#200,#188,#32,.T.);
#238=EDGE_CURVE('',#187,#188,#36,.T.);
#240=EDGE_CURVE('',#187,#190,#41,.T.);
#242=EDGE_CURVE('',#190,#192,#45,.T.);
#255=EDGE_CURVE('',#198,#200,#63,.T.);
#257=EDGE_CURVE('',#198,#187,#124,.T.);
#267=EDGE_CURVE('',#195,#196,#54,.T.);
#269=EDGE_CURVE('',#195,#198,#59,.T.);
#283=EDGE_CURVE('',#160,#168,#72,.T.);
#285=EDGE_CURVE('',#168,#195,#128,.T.);
#296=EDGE_CURVE('',#159,#167,#76,.T.);
#298=EDGE_CURVE('',#167,#168,#132,.T.);
#309=EDGE_CURVE('',#171,#172,#80,.T.);
#311=EDGE_CURVE('',#172,#167,#136,.T.);
#325=EDGE_CURVE('',#175,#176,#89,.T.);
#327=EDGE_CURVE('',#176,#172,#94,.T.);
#339=EDGE_CURVE('',#179,#180,#98,.T.);
#341=EDGE_CURVE('',#180,#176,#140,.T.);
#353=EDGE_CURVE('',#183,#184,#107,.T.);
#355=EDGE_CURVE('',#184,#180,#112,.T.);
#367=EDGE_CURVE('',#156,#164,#116,.T.);
#369=EDGE_CURVE('',#164,#184,#144,.T.);
#380=EDGE_CURVE('',#155,#163,#120,.T.);
#382=EDGE_CURVE('',#163,#164,#148,.T.);
#394=EDGE_CURVE('',#190,#163,#152,.T.);
#423=(LENGTH_UNIT()NAMED_UNIT(*)SI_UNIT(.MILLI.,.METRE.));
#425=(NAMED_UNIT(*)PLANE_ANGLE_UNIT()SI_UNIT($,.RADIAN.));
#428=(NAMED_UNIT(*)SI_UNIT($,.STERADIAN.)SOLID_ANGLE_UNIT());
#431=ADVANCED_BREP_SHAPE_REPRESENTATION('',(#422),#430);
#438=PRODUCT_DEFINITION('design','',#437,#434);
#439=PRODUCT_DEFINITION_SHAPE('','SHAPE FOR C61036-A0495-C005-01-7606.',#438);
#440=SHAPE_DEFINITION_REPRESENTATION(#439,#431);
ENDSEC;
END-ISO-10303-21;
