ISO-10303-21;
HEADER;
FILE_DESCRIPTION((''),'2;1');
FILE_NAME('C61036-A0207-C002-01-06','2018-05-11T',('ec7121'),(''),
'PRO/ENGINEER BY PARAMETRIC TECHNOLOGY CORPORATION, 2014000',
'PRO/ENGINEER BY PARAMETRIC TECHNOLOGY CORPORATION, 2014000','');
FILE_SCHEMA(('CONFIG_CONTROL_DESIGN'));
ENDSEC;
DATA;
#1=DIRECTION('',(1.E0,0.E0,0.E0));
#2=VECTOR('',#1,3.8E1);
#3=CARTESIAN_POINT('',(-1.9E1,-7.6E0,0.E0));
#4=LINE('',#3,#2);
#5=DIRECTION('',(0.E0,0.E0,-1.E0));
#6=VECTOR('',#5,1.92E1);
#7=CARTESIAN_POINT('',(2.1E1,-7.6E0,-2.E0));
#8=LINE('',#7,#6);
#9=DIRECTION('',(-1.E0,0.E0,0.E0));
#10=VECTOR('',#9,6.25E0);
#11=CARTESIAN_POINT('',(2.1E1,-7.6E0,-2.12E1));
#12=LINE('',#11,#10);
#13=DIRECTION('',(0.E0,0.E0,1.E0));
#14=VECTOR('',#13,1.42E1);
#15=CARTESIAN_POINT('',(1.475E1,-7.6E0,-2.12E1));
#16=LINE('',#15,#14);
#17=DIRECTION('',(-1.E0,0.E0,0.E0));
#18=VECTOR('',#17,7.45E0);
#19=CARTESIAN_POINT('',(1.415E1,-7.6E0,-6.4E0));
#20=LINE('',#19,#18);
#21=DIRECTION('',(0.E0,0.E0,-1.E0));
#22=VECTOR('',#21,1.42E1);
#23=CARTESIAN_POINT('',(6.1E0,-7.6E0,-7.E0));
#24=LINE('',#23,#22);
#25=DIRECTION('',(-1.E0,0.E0,0.E0));
#26=VECTOR('',#25,1.22E1);
#27=CARTESIAN_POINT('',(6.1E0,-7.6E0,-2.12E1));
#28=LINE('',#27,#26);
#29=DIRECTION('',(0.E0,0.E0,1.E0));
#30=VECTOR('',#29,1.42E1);
#31=CARTESIAN_POINT('',(-6.1E0,-7.6E0,-2.12E1));
#32=LINE('',#31,#30);
#33=DIRECTION('',(-1.E0,0.E0,0.E0));
#34=VECTOR('',#33,7.45E0);
#35=CARTESIAN_POINT('',(-6.7E0,-7.6E0,-6.4E0));
#36=LINE('',#35,#34);
#37=DIRECTION('',(0.E0,0.E0,-1.E0));
#38=VECTOR('',#37,1.42E1);
#39=CARTESIAN_POINT('',(-1.475E1,-7.6E0,-7.E0));
#40=LINE('',#39,#38);
#41=DIRECTION('',(-1.E0,0.E0,0.E0));
#42=VECTOR('',#41,6.25E0);
#43=CARTESIAN_POINT('',(-1.475E1,-7.6E0,-2.12E1));
#44=LINE('',#43,#42);
#45=DIRECTION('',(0.E0,0.E0,1.E0));
#46=VECTOR('',#45,1.92E1);
#47=CARTESIAN_POINT('',(-2.1E1,-7.6E0,-2.12E1));
#48=LINE('',#47,#46);
#49=DIRECTION('',(0.E0,-1.E0,0.E0));
#50=VECTOR('',#49,1.52E1);
#51=CARTESIAN_POINT('',(-2.1E1,7.6E0,-2.E0));
#52=LINE('',#51,#50);
#53=CARTESIAN_POINT('',(-1.9E1,7.6E0,-2.E0));
#54=DIRECTION('',(0.E0,1.E0,0.E0));
#55=DIRECTION('',(-1.E0,0.E0,0.E0));
#56=AXIS2_PLACEMENT_3D('',#53,#54,#55);
#58=DIRECTION('',(0.E0,-1.E0,0.E0));
#59=VECTOR('',#58,1.52E1);
#60=CARTESIAN_POINT('',(-1.9E1,7.6E0,0.E0));
#61=LINE('',#60,#59);
#62=CARTESIAN_POINT('',(-1.9E1,-7.6E0,-2.E0));
#63=DIRECTION('',(0.E0,-1.E0,0.E0));
#64=DIRECTION('',(0.E0,0.E0,1.E0));
#65=AXIS2_PLACEMENT_3D('',#62,#63,#64);
#67=DIRECTION('',(0.E0,1.E0,0.E0));
#68=VECTOR('',#67,1.52E1);
#69=CARTESIAN_POINT('',(-2.1E1,-7.6E0,-2.12E1));
#70=LINE('',#69,#68);
#71=DIRECTION('',(0.E0,1.E0,0.E0));
#72=VECTOR('',#71,1.52E1);
#73=CARTESIAN_POINT('',(-1.475E1,-7.6E0,-2.12E1));
#74=LINE('',#73,#72);
#75=DIRECTION('',(0.E0,1.E0,0.E0));
#76=VECTOR('',#75,1.52E1);
#77=CARTESIAN_POINT('',(-1.475E1,-7.6E0,-7.E0));
#78=LINE('',#77,#76);
#79=CARTESIAN_POINT('',(-1.415E1,-7.6E0,-7.E0));
#80=DIRECTION('',(0.E0,1.E0,0.E0));
#81=DIRECTION('',(-1.E0,0.E0,0.E0));
#82=AXIS2_PLACEMENT_3D('',#79,#80,#81);
#84=DIRECTION('',(0.E0,1.E0,0.E0));
#85=VECTOR('',#84,1.52E1);
#86=CARTESIAN_POINT('',(-1.415E1,-7.6E0,-6.4E0));
#87=LINE('',#86,#85);
#88=CARTESIAN_POINT('',(-1.415E1,7.6E0,-7.E0));
#89=DIRECTION('',(0.E0,-1.E0,0.E0));
#90=DIRECTION('',(0.E0,0.E0,1.E0));
#91=AXIS2_PLACEMENT_3D('',#88,#89,#90);
#93=DIRECTION('',(0.E0,1.E0,0.E0));
#94=VECTOR('',#93,1.52E1);
#95=CARTESIAN_POINT('',(-6.7E0,-7.6E0,-6.4E0));
#96=LINE('',#95,#94);
#97=CARTESIAN_POINT('',(-6.7E0,-7.6E0,-7.E0));
#98=DIRECTION('',(0.E0,1.E0,0.E0));
#99=DIRECTION('',(0.E0,0.E0,1.E0));
#100=AXIS2_PLACEMENT_3D('',#97,#98,#99);
#102=DIRECTION('',(0.E0,1.E0,0.E0));
#103=VECTOR('',#102,1.52E1);
#104=CARTESIAN_POINT('',(-6.1E0,-7.6E0,-7.E0));
#105=LINE('',#104,#103);
#106=CARTESIAN_POINT('',(-6.7E0,7.6E0,-7.E0));
#107=DIRECTION('',(0.E0,-1.E0,0.E0));
#108=DIRECTION('',(1.E0,0.E0,0.E0));
#109=AXIS2_PLACEMENT_3D('',#106,#107,#108);
#111=DIRECTION('',(0.E0,1.E0,0.E0));
#112=VECTOR('',#111,1.52E1);
#113=CARTESIAN_POINT('',(-6.1E0,-7.6E0,-2.12E1));
#114=LINE('',#113,#112);
#115=DIRECTION('',(0.E0,1.E0,0.E0));
#116=VECTOR('',#115,1.52E1);
#117=CARTESIAN_POINT('',(6.1E0,-7.6E0,-2.12E1));
#118=LINE('',#117,#116);
#119=DIRECTION('',(0.E0,1.E0,0.E0));
#120=VECTOR('',#119,1.52E1);
#121=CARTESIAN_POINT('',(6.1E0,-7.6E0,-7.E0));
#122=LINE('',#121,#120);
#123=CARTESIAN_POINT('',(6.7E0,-7.6E0,-7.E0));
#124=DIRECTION('',(0.E0,1.E0,0.E0));
#125=DIRECTION('',(-1.E0,0.E0,0.E0));
#126=AXIS2_PLACEMENT_3D('',#123,#124,#125);
#128=DIRECTION('',(0.E0,1.E0,0.E0));
#129=VECTOR('',#128,1.52E1);
#130=CARTESIAN_POINT('',(6.7E0,-7.6E0,-6.4E0));
#131=LINE('',#130,#129);
#132=CARTESIAN_POINT('',(6.7E0,7.6E0,-7.E0));
#133=DIRECTION('',(0.E0,-1.E0,0.E0));
#134=DIRECTION('',(0.E0,0.E0,1.E0));
#135=AXIS2_PLACEMENT_3D('',#132,#133,#134);
#137=DIRECTION('',(0.E0,1.E0,0.E0));
#138=VECTOR('',#137,1.52E1);
#139=CARTESIAN_POINT('',(1.415E1,-7.6E0,-6.4E0));
#140=LINE('',#139,#138);
#141=CARTESIAN_POINT('',(1.415E1,-7.6E0,-7.E0));
#142=DIRECTION('',(0.E0,1.E0,0.E0));
#143=DIRECTION('',(0.E0,0.E0,1.E0));
#144=AXIS2_PLACEMENT_3D('',#141,#142,#143);
#146=DIRECTION('',(0.E0,1.E0,0.E0));
#147=VECTOR('',#146,1.52E1);
#148=CARTESIAN_POINT('',(1.475E1,-7.6E0,-7.E0));
#149=LINE('',#148,#147);
#150=CARTESIAN_POINT('',(1.415E1,7.6E0,-7.E0));
#151=DIRECTION('',(0.E0,-1.E0,0.E0));
#152=DIRECTION('',(1.E0,0.E0,0.E0));
#153=AXIS2_PLACEMENT_3D('',#150,#151,#152);
#155=DIRECTION('',(0.E0,1.E0,0.E0));
#156=VECTOR('',#155,1.52E1);
#157=CARTESIAN_POINT('',(1.475E1,-7.6E0,-2.12E1));
#158=LINE('',#157,#156);
#159=DIRECTION('',(0.E0,1.E0,0.E0));
#160=VECTOR('',#159,1.52E1);
#161=CARTESIAN_POINT('',(2.1E1,-7.6E0,-2.12E1));
#162=LINE('',#161,#160);
#163=DIRECTION('',(0.E0,-1.E0,0.E0));
#164=VECTOR('',#163,1.52E1);
#165=CARTESIAN_POINT('',(1.9E1,7.6E0,0.E0));
#166=LINE('',#165,#164);
#167=CARTESIAN_POINT('',(1.9E1,7.6E0,-2.E0));
#168=DIRECTION('',(0.E0,1.E0,0.E0));
#169=DIRECTION('',(0.E0,0.E0,1.E0));
#170=AXIS2_PLACEMENT_3D('',#167,#168,#169);
#172=DIRECTION('',(0.E0,-1.E0,0.E0));
#173=VECTOR('',#172,1.52E1);
#174=CARTESIAN_POINT('',(2.1E1,7.6E0,-2.E0));
#175=LINE('',#174,#173);
#176=CARTESIAN_POINT('',(1.9E1,-7.6E0,-2.E0));
#177=DIRECTION('',(0.E0,-1.E0,0.E0));
#178=DIRECTION('',(1.E0,0.E0,0.E0));
#179=AXIS2_PLACEMENT_3D('',#176,#177,#178);
#181=DIRECTION('',(0.E0,0.E0,1.E0));
#182=VECTOR('',#181,1.92E1);
#183=CARTESIAN_POINT('',(-2.1E1,7.6E0,-2.12E1));
#184=LINE('',#183,#182);
#185=DIRECTION('',(-1.E0,0.E0,0.E0));
#186=VECTOR('',#185,6.25E0);
#187=CARTESIAN_POINT('',(-1.475E1,7.6E0,-2.12E1));
#188=LINE('',#187,#186);
#189=DIRECTION('',(0.E0,0.E0,-1.E0));
#190=VECTOR('',#189,1.42E1);
#191=CARTESIAN_POINT('',(-1.475E1,7.6E0,-7.E0));
#192=LINE('',#191,#190);
#193=DIRECTION('',(-1.E0,0.E0,0.E0));
#194=VECTOR('',#193,7.45E0);
#195=CARTESIAN_POINT('',(-6.7E0,7.6E0,-6.4E0));
#196=LINE('',#195,#194);
#197=DIRECTION('',(0.E0,0.E0,1.E0));
#198=VECTOR('',#197,1.42E1);
#199=CARTESIAN_POINT('',(-6.1E0,7.6E0,-2.12E1));
#200=LINE('',#199,#198);
#201=DIRECTION('',(-1.E0,0.E0,0.E0));
#202=VECTOR('',#201,1.22E1);
#203=CARTESIAN_POINT('',(6.1E0,7.6E0,-2.12E1));
#204=LINE('',#203,#202);
#205=DIRECTION('',(0.E0,0.E0,-1.E0));
#206=VECTOR('',#205,1.42E1);
#207=CARTESIAN_POINT('',(6.1E0,7.6E0,-7.E0));
#208=LINE('',#207,#206);
#209=DIRECTION('',(-1.E0,0.E0,0.E0));
#210=VECTOR('',#209,7.45E0);
#211=CARTESIAN_POINT('',(1.415E1,7.6E0,-6.4E0));
#212=LINE('',#211,#210);
#213=DIRECTION('',(0.E0,0.E0,1.E0));
#214=VECTOR('',#213,1.42E1);
#215=CARTESIAN_POINT('',(1.475E1,7.6E0,-2.12E1));
#216=LINE('',#215,#214);
#217=DIRECTION('',(-1.E0,0.E0,0.E0));
#218=VECTOR('',#217,6.25E0);
#219=CARTESIAN_POINT('',(2.1E1,7.6E0,-2.12E1));
#220=LINE('',#219,#218);
#221=DIRECTION('',(0.E0,0.E0,-1.E0));
#222=VECTOR('',#221,1.92E1);
#223=CARTESIAN_POINT('',(2.1E1,7.6E0,-2.E0));
#224=LINE('',#223,#222);
#225=DIRECTION('',(1.E0,0.E0,0.E0));
#226=VECTOR('',#225,3.8E1);
#227=CARTESIAN_POINT('',(-1.9E1,7.6E0,0.E0));
#228=LINE('',#227,#226);
#229=CARTESIAN_POINT('',(2.1E1,-7.6E0,-2.12E1));
#230=CARTESIAN_POINT('',(1.475E1,-7.6E0,-2.12E1));
#231=VERTEX_POINT('',#229);
#232=VERTEX_POINT('',#230);
#233=CARTESIAN_POINT('',(6.1E0,-7.6E0,-2.12E1));
#234=CARTESIAN_POINT('',(-6.1E0,-7.6E0,-2.12E1));
#235=VERTEX_POINT('',#233);
#236=VERTEX_POINT('',#234);
#237=CARTESIAN_POINT('',(-1.475E1,-7.6E0,-2.12E1));
#238=CARTESIAN_POINT('',(-2.1E1,-7.6E0,-2.12E1));
#239=VERTEX_POINT('',#237);
#240=VERTEX_POINT('',#238);
#241=CARTESIAN_POINT('',(2.1E1,7.6E0,-2.12E1));
#242=CARTESIAN_POINT('',(1.475E1,7.6E0,-2.12E1));
#243=VERTEX_POINT('',#241);
#244=VERTEX_POINT('',#242);
#245=CARTESIAN_POINT('',(6.1E0,7.6E0,-2.12E1));
#246=CARTESIAN_POINT('',(-6.1E0,7.6E0,-2.12E1));
#247=VERTEX_POINT('',#245);
#248=VERTEX_POINT('',#246);
#249=CARTESIAN_POINT('',(-1.475E1,7.6E0,-2.12E1));
#250=CARTESIAN_POINT('',(-2.1E1,7.6E0,-2.12E1));
#251=VERTEX_POINT('',#249);
#252=VERTEX_POINT('',#250);
#253=CARTESIAN_POINT('',(-1.475E1,-7.6E0,-7.E0));
#254=CARTESIAN_POINT('',(-1.475E1,7.6E0,-7.E0));
#255=VERTEX_POINT('',#253);
#256=VERTEX_POINT('',#254);
#257=CARTESIAN_POINT('',(-1.415E1,-7.6E0,-6.4E0));
#258=CARTESIAN_POINT('',(-1.415E1,7.6E0,-6.4E0));
#259=VERTEX_POINT('',#257);
#260=VERTEX_POINT('',#258);
#261=CARTESIAN_POINT('',(6.1E0,-7.6E0,-7.E0));
#262=CARTESIAN_POINT('',(6.1E0,7.6E0,-7.E0));
#263=VERTEX_POINT('',#261);
#264=VERTEX_POINT('',#262);
#265=CARTESIAN_POINT('',(6.7E0,-7.6E0,-6.4E0));
#266=CARTESIAN_POINT('',(6.7E0,7.6E0,-6.4E0));
#267=VERTEX_POINT('',#265);
#268=VERTEX_POINT('',#266);
#269=CARTESIAN_POINT('',(1.415E1,-7.6E0,-6.4E0));
#270=CARTESIAN_POINT('',(1.415E1,7.6E0,-6.4E0));
#271=VERTEX_POINT('',#269);
#272=VERTEX_POINT('',#270);
#273=CARTESIAN_POINT('',(1.475E1,-7.6E0,-7.E0));
#274=CARTESIAN_POINT('',(1.475E1,7.6E0,-7.E0));
#275=VERTEX_POINT('',#273);
#276=VERTEX_POINT('',#274);
#277=CARTESIAN_POINT('',(-6.7E0,-7.6E0,-6.4E0));
#278=CARTESIAN_POINT('',(-6.7E0,7.6E0,-6.4E0));
#279=VERTEX_POINT('',#277);
#280=VERTEX_POINT('',#278);
#281=CARTESIAN_POINT('',(-6.1E0,-7.6E0,-7.E0));
#282=CARTESIAN_POINT('',(-6.1E0,7.6E0,-7.E0));
#283=VERTEX_POINT('',#281);
#284=VERTEX_POINT('',#282);
#285=CARTESIAN_POINT('',(-2.1E1,7.6E0,-2.E0));
#286=CARTESIAN_POINT('',(-2.1E1,-7.6E0,-2.E0));
#287=VERTEX_POINT('',#285);
#288=VERTEX_POINT('',#286);
#289=CARTESIAN_POINT('',(-1.9E1,7.6E0,0.E0));
#290=VERTEX_POINT('',#289);
#291=CARTESIAN_POINT('',(-1.9E1,-7.6E0,0.E0));
#292=VERTEX_POINT('',#291);
#293=CARTESIAN_POINT('',(1.9E1,7.6E0,0.E0));
#294=CARTESIAN_POINT('',(1.9E1,-7.6E0,0.E0));
#295=VERTEX_POINT('',#293);
#296=VERTEX_POINT('',#294);
#297=CARTESIAN_POINT('',(2.1E1,7.6E0,-2.E0));
#298=VERTEX_POINT('',#297);
#299=CARTESIAN_POINT('',(2.1E1,-7.6E0,-2.E0));
#300=VERTEX_POINT('',#299);
#301=CARTESIAN_POINT('',(0.E0,-7.6E0,0.E0));
#302=DIRECTION('',(0.E0,1.E0,0.E0));
#303=DIRECTION('',(1.E0,0.E0,0.E0));
#304=AXIS2_PLACEMENT_3D('',#301,#302,#303);
#305=PLANE('',#304);
#307=ORIENTED_EDGE('',*,*,#306,.F.);
#309=ORIENTED_EDGE('',*,*,#308,.T.);
#311=ORIENTED_EDGE('',*,*,#310,.F.);
#313=ORIENTED_EDGE('',*,*,#312,.T.);
#315=ORIENTED_EDGE('',*,*,#314,.T.);
#317=ORIENTED_EDGE('',*,*,#316,.T.);
#319=ORIENTED_EDGE('',*,*,#318,.F.);
#321=ORIENTED_EDGE('',*,*,#320,.T.);
#323=ORIENTED_EDGE('',*,*,#322,.F.);
#325=ORIENTED_EDGE('',*,*,#324,.T.);
#327=ORIENTED_EDGE('',*,*,#326,.T.);
#329=ORIENTED_EDGE('',*,*,#328,.T.);
#331=ORIENTED_EDGE('',*,*,#330,.F.);
#333=ORIENTED_EDGE('',*,*,#332,.T.);
#335=ORIENTED_EDGE('',*,*,#334,.F.);
#337=ORIENTED_EDGE('',*,*,#336,.T.);
#339=ORIENTED_EDGE('',*,*,#338,.T.);
#341=ORIENTED_EDGE('',*,*,#340,.T.);
#342=EDGE_LOOP('',(#307,#309,#311,#313,#315,#317,#319,#321,#323,#325,#327,#329,
#331,#333,#335,#337,#339,#341));
#343=FACE_OUTER_BOUND('',#342,.F.);
#344=ADVANCED_FACE('',(#343),#305,.F.);
#345=CARTESIAN_POINT('',(-1.9E1,7.6015648E0,-2.E0));
#346=DIRECTION('',(0.E0,-1.E0,0.E0));
#347=DIRECTION('',(0.E0,0.E0,1.E0));
#348=AXIS2_PLACEMENT_3D('',#345,#346,#347);
#349=CYLINDRICAL_SURFACE('',#348,2.E0);
#351=ORIENTED_EDGE('',*,*,#350,.F.);
#353=ORIENTED_EDGE('',*,*,#352,.T.);
#355=ORIENTED_EDGE('',*,*,#354,.T.);
#356=ORIENTED_EDGE('',*,*,#306,.T.);
#357=EDGE_LOOP('',(#351,#353,#355,#356));
#358=FACE_OUTER_BOUND('',#357,.F.);
#359=ADVANCED_FACE('',(#358),#349,.T.);
#360=CARTESIAN_POINT('',(-2.1E1,-7.6E0,-2.12E1));
#361=DIRECTION('',(-1.E0,0.E0,0.E0));
#362=DIRECTION('',(0.E0,0.E0,1.E0));
#363=AXIS2_PLACEMENT_3D('',#360,#361,#362);
#364=PLANE('',#363);
#365=ORIENTED_EDGE('',*,*,#350,.T.);
#366=ORIENTED_EDGE('',*,*,#340,.F.);
#368=ORIENTED_EDGE('',*,*,#367,.T.);
#370=ORIENTED_EDGE('',*,*,#369,.T.);
#371=EDGE_LOOP('',(#365,#366,#368,#370));
#372=FACE_OUTER_BOUND('',#371,.F.);
#373=ADVANCED_FACE('',(#372),#364,.T.);
#374=CARTESIAN_POINT('',(-1.475E1,-7.6E0,-2.12E1));
#375=DIRECTION('',(0.E0,0.E0,-1.E0));
#376=DIRECTION('',(-1.E0,0.E0,0.E0));
#377=AXIS2_PLACEMENT_3D('',#374,#375,#376);
#378=PLANE('',#377);
#379=ORIENTED_EDGE('',*,*,#338,.F.);
#381=ORIENTED_EDGE('',*,*,#380,.T.);
#383=ORIENTED_EDGE('',*,*,#382,.T.);
#384=ORIENTED_EDGE('',*,*,#367,.F.);
#385=EDGE_LOOP('',(#379,#381,#383,#384));
#386=FACE_OUTER_BOUND('',#385,.F.);
#387=ADVANCED_FACE('',(#386),#378,.T.);
#388=CARTESIAN_POINT('',(-1.475E1,-7.6E0,-6.4E0));
#389=DIRECTION('',(1.E0,0.E0,0.E0));
#390=DIRECTION('',(0.E0,0.E0,-1.E0));
#391=AXIS2_PLACEMENT_3D('',#388,#389,#390);
#392=PLANE('',#391);
#394=ORIENTED_EDGE('',*,*,#393,.T.);
#396=ORIENTED_EDGE('',*,*,#395,.T.);
#397=ORIENTED_EDGE('',*,*,#380,.F.);
#398=ORIENTED_EDGE('',*,*,#336,.F.);
#399=EDGE_LOOP('',(#394,#396,#397,#398));
#400=FACE_OUTER_BOUND('',#399,.F.);
#401=ADVANCED_FACE('',(#400),#392,.T.);
#402=CARTESIAN_POINT('',(-1.415E1,-7.60133704E0,-7.E0));
#403=DIRECTION('',(0.E0,1.E0,0.E0));
#404=DIRECTION('',(-1.E0,0.E0,0.E0));
#405=AXIS2_PLACEMENT_3D('',#402,#403,#404);
#406=CYLINDRICAL_SURFACE('',#405,6.E-1);
#407=ORIENTED_EDGE('',*,*,#393,.F.);
#408=ORIENTED_EDGE('',*,*,#334,.T.);
#410=ORIENTED_EDGE('',*,*,#409,.T.);
#412=ORIENTED_EDGE('',*,*,#411,.T.);
#413=EDGE_LOOP('',(#407,#408,#410,#412));
#414=FACE_OUTER_BOUND('',#413,.F.);
#415=ADVANCED_FACE('',(#414),#406,.F.);
#416=CARTESIAN_POINT('',(-6.1E0,-7.6E0,-6.4E0));
#417=DIRECTION('',(0.E0,0.E0,-1.E0));
#418=DIRECTION('',(-1.E0,0.E0,0.E0));
#419=AXIS2_PLACEMENT_3D('',#416,#417,#418);
#420=PLANE('',#419);
#421=ORIENTED_EDGE('',*,*,#409,.F.);
#422=ORIENTED_EDGE('',*,*,#332,.F.);
#424=ORIENTED_EDGE('',*,*,#423,.T.);
#426=ORIENTED_EDGE('',*,*,#425,.T.);
#427=EDGE_LOOP('',(#421,#422,#424,#426));
#428=FACE_OUTER_BOUND('',#427,.F.);
#429=ADVANCED_FACE('',(#428),#420,.T.);
#430=CARTESIAN_POINT('',(-6.7E0,-7.60133704E0,-7.E0));
#431=DIRECTION('',(0.E0,1.E0,0.E0));
#432=DIRECTION('',(0.E0,0.E0,1.E0));
#433=AXIS2_PLACEMENT_3D('',#430,#431,#432);
#434=CYLINDRICAL_SURFACE('',#433,6.E-1);
#435=ORIENTED_EDGE('',*,*,#423,.F.);
#436=ORIENTED_EDGE('',*,*,#330,.T.);
#438=ORIENTED_EDGE('',*,*,#437,.T.);
#440=ORIENTED_EDGE('',*,*,#439,.T.);
#441=EDGE_LOOP('',(#435,#436,#438,#440));
#442=FACE_OUTER_BOUND('',#441,.F.);
#443=ADVANCED_FACE('',(#442),#434,.F.);
#444=CARTESIAN_POINT('',(-6.1E0,-7.6E0,-2.12E1));
#445=DIRECTION('',(-1.E0,0.E0,0.E0));
#446=DIRECTION('',(0.E0,0.E0,1.E0));
#447=AXIS2_PLACEMENT_3D('',#444,#445,#446);
#448=PLANE('',#447);
#449=ORIENTED_EDGE('',*,*,#437,.F.);
#450=ORIENTED_EDGE('',*,*,#328,.F.);
#452=ORIENTED_EDGE('',*,*,#451,.T.);
#454=ORIENTED_EDGE('',*,*,#453,.T.);
#455=EDGE_LOOP('',(#449,#450,#452,#454));
#456=FACE_OUTER_BOUND('',#455,.F.);
#457=ADVANCED_FACE('',(#456),#448,.T.);
#458=CARTESIAN_POINT('',(6.1E0,-7.6E0,-2.12E1));
#459=DIRECTION('',(0.E0,0.E0,-1.E0));
#460=DIRECTION('',(-1.E0,0.E0,0.E0));
#461=AXIS2_PLACEMENT_3D('',#458,#459,#460);
#462=PLANE('',#461);
#463=ORIENTED_EDGE('',*,*,#326,.F.);
#465=ORIENTED_EDGE('',*,*,#464,.T.);
#467=ORIENTED_EDGE('',*,*,#466,.T.);
#468=ORIENTED_EDGE('',*,*,#451,.F.);
#469=EDGE_LOOP('',(#463,#465,#467,#468));
#470=FACE_OUTER_BOUND('',#469,.F.);
#471=ADVANCED_FACE('',(#470),#462,.T.);
#472=CARTESIAN_POINT('',(6.1E0,-7.6E0,-6.4E0));
#473=DIRECTION('',(1.E0,0.E0,0.E0));
#474=DIRECTION('',(0.E0,0.E0,-1.E0));
#475=AXIS2_PLACEMENT_3D('',#472,#473,#474);
#476=PLANE('',#475);
#478=ORIENTED_EDGE('',*,*,#477,.T.);
#480=ORIENTED_EDGE('',*,*,#479,.T.);
#481=ORIENTED_EDGE('',*,*,#464,.F.);
#482=ORIENTED_EDGE('',*,*,#324,.F.);
#483=EDGE_LOOP('',(#478,#480,#481,#482));
#484=FACE_OUTER_BOUND('',#483,.F.);
#485=ADVANCED_FACE('',(#484),#476,.T.);
#486=CARTESIAN_POINT('',(6.7E0,-7.60133704E0,-7.E0));
#487=DIRECTION('',(0.E0,1.E0,0.E0));
#488=DIRECTION('',(-1.E0,0.E0,0.E0));
#489=AXIS2_PLACEMENT_3D('',#486,#487,#488);
#490=CYLINDRICAL_SURFACE('',#489,6.E-1);
#491=ORIENTED_EDGE('',*,*,#477,.F.);
#492=ORIENTED_EDGE('',*,*,#322,.T.);
#494=ORIENTED_EDGE('',*,*,#493,.T.);
#496=ORIENTED_EDGE('',*,*,#495,.T.);
#497=EDGE_LOOP('',(#491,#492,#494,#496));
#498=FACE_OUTER_BOUND('',#497,.F.);
#499=ADVANCED_FACE('',(#498),#490,.F.);
#500=CARTESIAN_POINT('',(1.475E1,-7.6E0,-6.4E0));
#501=DIRECTION('',(0.E0,0.E0,-1.E0));
#502=DIRECTION('',(-1.E0,0.E0,0.E0));
#503=AXIS2_PLACEMENT_3D('',#500,#501,#502);
#504=PLANE('',#503);
#505=ORIENTED_EDGE('',*,*,#493,.F.);
#506=ORIENTED_EDGE('',*,*,#320,.F.);
#508=ORIENTED_EDGE('',*,*,#507,.T.);
#510=ORIENTED_EDGE('',*,*,#509,.T.);
#511=EDGE_LOOP('',(#505,#506,#508,#510));
#512=FACE_OUTER_BOUND('',#511,.F.);
#513=ADVANCED_FACE('',(#512),#504,.T.);
#514=CARTESIAN_POINT('',(1.415E1,-7.60133704E0,-7.E0));
#515=DIRECTION('',(0.E0,1.E0,0.E0));
#516=DIRECTION('',(0.E0,0.E0,1.E0));
#517=AXIS2_PLACEMENT_3D('',#514,#515,#516);
#518=CYLINDRICAL_SURFACE('',#517,6.E-1);
#519=ORIENTED_EDGE('',*,*,#507,.F.);
#520=ORIENTED_EDGE('',*,*,#318,.T.);
#522=ORIENTED_EDGE('',*,*,#521,.T.);
#524=ORIENTED_EDGE('',*,*,#523,.T.);
#525=EDGE_LOOP('',(#519,#520,#522,#524));
#526=FACE_OUTER_BOUND('',#525,.F.);
#527=ADVANCED_FACE('',(#526),#518,.F.);
#528=CARTESIAN_POINT('',(1.475E1,-7.6E0,-2.12E1));
#529=DIRECTION('',(-1.E0,0.E0,0.E0));
#530=DIRECTION('',(0.E0,0.E0,1.E0));
#531=AXIS2_PLACEMENT_3D('',#528,#529,#530);
#532=PLANE('',#531);
#533=ORIENTED_EDGE('',*,*,#521,.F.);
#534=ORIENTED_EDGE('',*,*,#316,.F.);
#536=ORIENTED_EDGE('',*,*,#535,.T.);
#538=ORIENTED_EDGE('',*,*,#537,.T.);
#539=EDGE_LOOP('',(#533,#534,#536,#538));
#540=FACE_OUTER_BOUND('',#539,.F.);
#541=ADVANCED_FACE('',(#540),#532,.T.);
#542=CARTESIAN_POINT('',(2.1E1,-7.6E0,-2.12E1));
#543=DIRECTION('',(0.E0,0.E0,-1.E0));
#544=DIRECTION('',(-1.E0,0.E0,0.E0));
#545=AXIS2_PLACEMENT_3D('',#542,#543,#544);
#546=PLANE('',#545);
#547=ORIENTED_EDGE('',*,*,#314,.F.);
#549=ORIENTED_EDGE('',*,*,#548,.T.);
#551=ORIENTED_EDGE('',*,*,#550,.T.);
#552=ORIENTED_EDGE('',*,*,#535,.F.);
#553=EDGE_LOOP('',(#547,#549,#551,#552));
#554=FACE_OUTER_BOUND('',#553,.F.);
#555=ADVANCED_FACE('',(#554),#546,.T.);
#556=CARTESIAN_POINT('',(2.1E1,-7.6E0,0.E0));
#557=DIRECTION('',(1.E0,0.E0,0.E0));
#558=DIRECTION('',(0.E0,0.E0,-1.E0));
#559=AXIS2_PLACEMENT_3D('',#556,#557,#558);
#560=PLANE('',#559);
#562=ORIENTED_EDGE('',*,*,#561,.F.);
#564=ORIENTED_EDGE('',*,*,#563,.T.);
#565=ORIENTED_EDGE('',*,*,#548,.F.);
#566=ORIENTED_EDGE('',*,*,#312,.F.);
#567=EDGE_LOOP('',(#562,#564,#565,#566));
#568=FACE_OUTER_BOUND('',#567,.F.);
#569=ADVANCED_FACE('',(#568),#560,.T.);
#570=CARTESIAN_POINT('',(1.9E1,7.6015648E0,-2.E0));
#571=DIRECTION('',(0.E0,-1.E0,0.E0));
#572=DIRECTION('',(1.E0,0.E0,0.E0));
#573=AXIS2_PLACEMENT_3D('',#570,#571,#572);
#574=CYLINDRICAL_SURFACE('',#573,2.E0);
#576=ORIENTED_EDGE('',*,*,#575,.F.);
#578=ORIENTED_EDGE('',*,*,#577,.T.);
#579=ORIENTED_EDGE('',*,*,#561,.T.);
#580=ORIENTED_EDGE('',*,*,#310,.T.);
#581=EDGE_LOOP('',(#576,#578,#579,#580));
#582=FACE_OUTER_BOUND('',#581,.F.);
#583=ADVANCED_FACE('',(#582),#574,.T.);
#584=CARTESIAN_POINT('',(-2.1E1,-7.6E0,0.E0));
#585=DIRECTION('',(0.E0,0.E0,1.E0));
#586=DIRECTION('',(1.E0,0.E0,0.E0));
#587=AXIS2_PLACEMENT_3D('',#584,#585,#586);
#588=PLANE('',#587);
#589=ORIENTED_EDGE('',*,*,#354,.F.);
#591=ORIENTED_EDGE('',*,*,#590,.T.);
#592=ORIENTED_EDGE('',*,*,#575,.T.);
#593=ORIENTED_EDGE('',*,*,#308,.F.);
#594=EDGE_LOOP('',(#589,#591,#592,#593));
#595=FACE_OUTER_BOUND('',#594,.F.);
#596=ADVANCED_FACE('',(#595),#588,.T.);
#597=CARTESIAN_POINT('',(0.E0,7.6E0,0.E0));
#598=DIRECTION('',(0.E0,1.E0,0.E0));
#599=DIRECTION('',(1.E0,0.E0,0.E0));
#600=AXIS2_PLACEMENT_3D('',#597,#598,#599);
#601=PLANE('',#600);
#602=ORIENTED_EDGE('',*,*,#352,.F.);
#603=ORIENTED_EDGE('',*,*,#369,.F.);
#604=ORIENTED_EDGE('',*,*,#382,.F.);
#605=ORIENTED_EDGE('',*,*,#395,.F.);
#606=ORIENTED_EDGE('',*,*,#411,.F.);
#607=ORIENTED_EDGE('',*,*,#425,.F.);
#608=ORIENTED_EDGE('',*,*,#439,.F.);
#609=ORIENTED_EDGE('',*,*,#453,.F.);
#610=ORIENTED_EDGE('',*,*,#466,.F.);
#611=ORIENTED_EDGE('',*,*,#479,.F.);
#612=ORIENTED_EDGE('',*,*,#495,.F.);
#613=ORIENTED_EDGE('',*,*,#509,.F.);
#614=ORIENTED_EDGE('',*,*,#523,.F.);
#615=ORIENTED_EDGE('',*,*,#537,.F.);
#616=ORIENTED_EDGE('',*,*,#550,.F.);
#617=ORIENTED_EDGE('',*,*,#563,.F.);
#618=ORIENTED_EDGE('',*,*,#577,.F.);
#619=ORIENTED_EDGE('',*,*,#590,.F.);
#620=EDGE_LOOP('',(#602,#603,#604,#605,#606,#607,#608,#609,#610,#611,#612,#613,
#614,#615,#616,#617,#618,#619));
#621=FACE_OUTER_BOUND('',#620,.F.);
#622=ADVANCED_FACE('',(#621),#601,.T.);
#623=CLOSED_SHELL('',(#344,#359,#373,#387,#401,#415,#429,#443,#457,#471,#485,
#499,#513,#527,#541,#555,#569,#583,#596,#622));
#624=MANIFOLD_SOLID_BREP('',#623);
#626=DIMENSIONAL_EXPONENTS(0.E0,0.E0,0.E0,0.E0,0.E0,0.E0,0.E0);
#628=PLANE_ANGLE_MEASURE_WITH_UNIT(PLANE_ANGLE_MEASURE(1.745329251994E-2),#627);
#629=(CONVERSION_BASED_UNIT('DEGREE',#628)NAMED_UNIT(*)PLANE_ANGLE_UNIT());
#631=UNCERTAINTY_MEASURE_WITH_UNIT(LENGTH_MEASURE(1.E-4),#625,'closure',
'Maximum model space distance between geometric entities at asserted connectivities');
#632=(GEOMETRIC_REPRESENTATION_CONTEXT(3)GLOBAL_UNCERTAINTY_ASSIGNED_CONTEXT((
#631))GLOBAL_UNIT_ASSIGNED_CONTEXT((#625,#629,#630))REPRESENTATION_CONTEXT
('ID1','3'));
#634=APPLICATION_CONTEXT(
'CONFIGURATION CONTROLLED 3D DESIGNS OF MECHANICAL PARTS AND ASSEMBLIES');
#635=APPLICATION_PROTOCOL_DEFINITION('international standard',
'config_control_design',1994,#634);
#636=DESIGN_CONTEXT('',#634,'design');
#637=MECHANICAL_CONTEXT('',#634,'mechanical');
#638=PRODUCT('C61036-A0207-C002-01-06','C61036-A0207-C002-01-06',
'NOT SPECIFIED',(#637));
#639=PRODUCT_DEFINITION_FORMATION_WITH_SPECIFIED_SOURCE('3','LAST_VERSION',#638,
.MADE.);
#643=PRODUCT_CATEGORY('part','');
#644=PRODUCT_RELATED_PRODUCT_CATEGORY('detail','',(#638));
#645=PRODUCT_CATEGORY_RELATIONSHIP('','',#643,#644);
#646=SECURITY_CLASSIFICATION_LEVEL('unclassified');
#647=SECURITY_CLASSIFICATION('','',#646);
#648=CC_DESIGN_SECURITY_CLASSIFICATION(#647,(#639));
#649=APPROVAL_STATUS('approved');
#650=APPROVAL(#649,'');
#651=CC_DESIGN_APPROVAL(#650,(#647,#639,#640));
#652=CALENDAR_DATE(118,11,5);
#653=COORDINATED_UNIVERSAL_TIME_OFFSET(2,0,.AHEAD.);
#654=LOCAL_TIME(8,14,5.E1,#653);
#655=DATE_AND_TIME(#652,#654);
#656=APPROVAL_DATE_TIME(#655,#650);
#657=DATE_TIME_ROLE('creation_date');
#658=CC_DESIGN_DATE_AND_TIME_ASSIGNMENT(#655,#657,(#640));
#659=DATE_TIME_ROLE('classification_date');
#660=CC_DESIGN_DATE_AND_TIME_ASSIGNMENT(#655,#659,(#647));
#661=PERSON('UNSPECIFIED','UNSPECIFIED',$,$,$,$);
#662=ORGANIZATION('UNSPECIFIED','UNSPECIFIED','UNSPECIFIED');
#663=PERSON_AND_ORGANIZATION(#661,#662);
#664=APPROVAL_ROLE('approver');
#665=APPROVAL_PERSON_ORGANIZATION(#663,#650,#664);
#666=PERSON_AND_ORGANIZATION_ROLE('creator');
#667=CC_DESIGN_PERSON_AND_ORGANIZATION_ASSIGNMENT(#663,#666,(#639,#640));
#668=PERSON_AND_ORGANIZATION_ROLE('design_supplier');
#669=CC_DESIGN_PERSON_AND_ORGANIZATION_ASSIGNMENT(#663,#668,(#639));
#670=PERSON_AND_ORGANIZATION_ROLE('classification_officer');
#671=CC_DESIGN_PERSON_AND_ORGANIZATION_ASSIGNMENT(#663,#670,(#647));
#672=PERSON_AND_ORGANIZATION_ROLE('design_owner');
#673=CC_DESIGN_PERSON_AND_ORGANIZATION_ASSIGNMENT(#663,#672,(#638));
#57=CIRCLE('',#56,2.E0);
#66=CIRCLE('',#65,2.E0);
#83=CIRCLE('',#82,6.E-1);
#92=CIRCLE('',#91,6.E-1);
#101=CIRCLE('',#100,6.E-1);
#110=CIRCLE('',#109,6.E-1);
#127=CIRCLE('',#126,6.E-1);
#136=CIRCLE('',#135,6.E-1);
#145=CIRCLE('',#144,6.E-1);
#154=CIRCLE('',#153,6.E-1);
#171=CIRCLE('',#170,2.E0);
#180=CIRCLE('',#179,2.E0);
#306=EDGE_CURVE('',#292,#288,#66,.T.);
#308=EDGE_CURVE('',#292,#296,#4,.T.);
#310=EDGE_CURVE('',#300,#296,#180,.T.);
#312=EDGE_CURVE('',#300,#231,#8,.T.);
#314=EDGE_CURVE('',#231,#232,#12,.T.);
#316=EDGE_CURVE('',#232,#275,#16,.T.);
#318=EDGE_CURVE('',#271,#275,#145,.T.);
#320=EDGE_CURVE('',#271,#267,#20,.T.);
#322=EDGE_CURVE('',#263,#267,#127,.T.);
#324=EDGE_CURVE('',#263,#235,#24,.T.);
#326=EDGE_CURVE('',#235,#236,#28,.T.);
#328=EDGE_CURVE('',#236,#283,#32,.T.);
#330=EDGE_CURVE('',#279,#283,#101,.T.);
#332=EDGE_CURVE('',#279,#259,#36,.T.);
#334=EDGE_CURVE('',#255,#259,#83,.T.);
#336=EDGE_CURVE('',#255,#239,#40,.T.);
#338=EDGE_CURVE('',#239,#240,#44,.T.);
#340=EDGE_CURVE('',#240,#288,#48,.T.);
#350=EDGE_CURVE('',#287,#288,#52,.T.);
#352=EDGE_CURVE('',#287,#290,#57,.T.);
#354=EDGE_CURVE('',#290,#292,#61,.T.);
#367=EDGE_CURVE('',#240,#252,#70,.T.);
#369=EDGE_CURVE('',#252,#287,#184,.T.);
#380=EDGE_CURVE('',#239,#251,#74,.T.);
#382=EDGE_CURVE('',#251,#252,#188,.T.);
#393=EDGE_CURVE('',#255,#256,#78,.T.);
#395=EDGE_CURVE('',#256,#251,#192,.T.);
#409=EDGE_CURVE('',#259,#260,#87,.T.);
#411=EDGE_CURVE('',#260,#256,#92,.T.);
#423=EDGE_CURVE('',#279,#280,#96,.T.);
#425=EDGE_CURVE('',#280,#260,#196,.T.);
#437=EDGE_CURVE('',#283,#284,#105,.T.);
#439=EDGE_CURVE('',#284,#280,#110,.T.);
#451=EDGE_CURVE('',#236,#248,#114,.T.);
#453=EDGE_CURVE('',#248,#284,#200,.T.);
#464=EDGE_CURVE('',#235,#247,#118,.T.);
#466=EDGE_CURVE('',#247,#248,#204,.T.);
#477=EDGE_CURVE('',#263,#264,#122,.T.);
#479=EDGE_CURVE('',#264,#247,#208,.T.);
#493=EDGE_CURVE('',#267,#268,#131,.T.);
#495=EDGE_CURVE('',#268,#264,#136,.T.);
#507=EDGE_CURVE('',#271,#272,#140,.T.);
#509=EDGE_CURVE('',#272,#268,#212,.T.);
#521=EDGE_CURVE('',#275,#276,#149,.T.);
#523=EDGE_CURVE('',#276,#272,#154,.T.);
#535=EDGE_CURVE('',#232,#244,#158,.T.);
#537=EDGE_CURVE('',#244,#276,#216,.T.);
#548=EDGE_CURVE('',#231,#243,#162,.T.);
#550=EDGE_CURVE('',#243,#244,#220,.T.);
#561=EDGE_CURVE('',#298,#300,#175,.T.);
#563=EDGE_CURVE('',#298,#243,#224,.T.);
#575=EDGE_CURVE('',#295,#296,#166,.T.);
#577=EDGE_CURVE('',#295,#298,#171,.T.);
#590=EDGE_CURVE('',#290,#295,#228,.T.);
#625=(LENGTH_UNIT()NAMED_UNIT(*)SI_UNIT(.MILLI.,.METRE.));
#627=(NAMED_UNIT(*)PLANE_ANGLE_UNIT()SI_UNIT($,.RADIAN.));
#630=(NAMED_UNIT(*)SI_UNIT($,.STERADIAN.)SOLID_ANGLE_UNIT());
#633=ADVANCED_BREP_SHAPE_REPRESENTATION('',(#624),#632);
#640=PRODUCT_DEFINITION('design','',#639,#636);
#641=PRODUCT_DEFINITION_SHAPE('','SHAPE FOR C61036-A0207-C002-01-06.',#640);
#642=SHAPE_DEFINITION_REPRESENTATION(#641,#633);
ENDSEC;
END-ISO-10303-21;
