ISO-10303-21;
HEADER;
FILE_DESCRIPTION((''),'2;1');
FILE_NAME('C61020-A0012-C027-06-7606','2018-06-08T',('ec7121'),(''),
'PRO/ENGINEER BY PARAMETRIC TECHNOLOGY CORPORATION, 2014000',
'PRO/ENGINEER BY PARAMETRIC TECHNOLOGY CORPORATION, 2014000','');
FILE_SCHEMA(('CONFIG_CONTROL_DESIGN'));
ENDSEC;
DATA;
#1=CARTESIAN_POINT('',(-2.675E0,0.E0,0.E0));
#2=DIRECTION('',(1.E0,0.E0,0.E0));
#3=DIRECTION('',(0.E0,1.E0,0.E0));
#4=AXIS2_PLACEMENT_3D('',#1,#2,#3);
#6=DIRECTION('',(-6.427876096865E-1,-7.660444431190E-1,0.E0));
#7=VECTOR('',#6,5.136581080760E-1);
#8=CARTESIAN_POINT('',(-2.675E0,6.35E0,0.E0));
#9=LINE('',#8,#7);
#10=DIRECTION('',(-6.427876096865E-1,7.660444431190E-1,0.E0));
#11=VECTOR('',#10,5.136581080760E-1);
#12=CARTESIAN_POINT('',(-2.675E0,-6.35E0,0.E0));
#13=LINE('',#12,#11);
#14=CARTESIAN_POINT('',(-2.675E0,0.E0,0.E0));
#15=DIRECTION('',(-1.E0,0.E0,0.E0));
#16=DIRECTION('',(0.E0,1.E0,0.E0));
#17=AXIS2_PLACEMENT_3D('',#14,#15,#16);
#19=CARTESIAN_POINT('',(-1.175E0,5.15E0,0.E0));
#20=DIRECTION('',(0.E0,0.E0,1.E0));
#21=DIRECTION('',(-9.150865337432E-1,4.032575303227E-1,0.E0));
#22=AXIS2_PLACEMENT_3D('',#19,#20,#21);
#24=CARTESIAN_POINT('',(-1.175E0,-5.15E0,0.E0));
#25=DIRECTION('',(0.E0,0.E0,-1.E0));
#26=DIRECTION('',(-9.150865337432E-1,-4.032575303227E-1,0.E0));
#27=AXIS2_PLACEMENT_3D('',#24,#25,#26);
#29=CARTESIAN_POINT('',(-3.005173067486E0,0.E0,0.E0));
#30=DIRECTION('',(-1.E0,0.E0,0.E0));
#31=DIRECTION('',(0.E0,1.E0,0.E0));
#32=AXIS2_PLACEMENT_3D('',#29,#30,#31);
#34=CARTESIAN_POINT('',(-3.005173067486E0,0.E0,0.E0));
#35=DIRECTION('',(1.E0,0.E0,0.E0));
#36=DIRECTION('',(0.E0,1.E0,0.E0));
#37=AXIS2_PLACEMENT_3D('',#34,#35,#36);
#39=CARTESIAN_POINT('',(-3.005173067486E0,0.E0,0.E0));
#40=DIRECTION('',(1.E0,0.E0,0.E0));
#41=DIRECTION('',(0.E0,1.E0,0.E0));
#42=AXIS2_PLACEMENT_3D('',#39,#40,#41);
#44=DIRECTION('',(6.427876096865E-1,-7.660444431190E-1,0.E0));
#45=VECTOR('',#44,5.136581080760E-1);
#46=CARTESIAN_POINT('',(-3.005173067486E0,4.343484939355E0,0.E0));
#47=LINE('',#46,#45);
#48=DIRECTION('',(6.427876096865E-1,7.660444431190E-1,0.E0));
#49=VECTOR('',#48,5.136581080760E-1);
#50=CARTESIAN_POINT('',(-3.005173067486E0,-4.343484939355E0,0.E0));
#51=LINE('',#50,#49);
#52=CARTESIAN_POINT('',(-3.005173067486E0,0.E0,0.E0));
#53=DIRECTION('',(-1.E0,0.E0,0.E0));
#54=DIRECTION('',(0.E0,1.E0,0.E0));
#55=AXIS2_PLACEMENT_3D('',#52,#53,#54);
#57=DIRECTION('',(1.E0,0.E0,0.E0));
#58=VECTOR('',#57,5.35E0);
#59=CARTESIAN_POINT('',(-2.675E0,3.95E0,0.E0));
#60=LINE('',#59,#58);
#61=DIRECTION('',(1.E0,0.E0,0.E0));
#62=VECTOR('',#61,5.35E0);
#63=CARTESIAN_POINT('',(-2.675E0,-3.95E0,0.E0));
#64=LINE('',#63,#62);
#65=CARTESIAN_POINT('',(-2.675E0,0.E0,0.E0));
#66=DIRECTION('',(-1.E0,0.E0,0.E0));
#67=DIRECTION('',(0.E0,1.E0,0.E0));
#68=AXIS2_PLACEMENT_3D('',#65,#66,#67);
#70=CARTESIAN_POINT('',(-2.675E0,0.E0,0.E0));
#71=DIRECTION('',(1.E0,0.E0,0.E0));
#72=DIRECTION('',(0.E0,1.E0,0.E0));
#73=AXIS2_PLACEMENT_3D('',#70,#71,#72);
#75=CARTESIAN_POINT('',(2.675E0,0.E0,0.E0));
#76=DIRECTION('',(1.E0,0.E0,0.E0));
#77=DIRECTION('',(0.E0,1.E0,0.E0));
#78=AXIS2_PLACEMENT_3D('',#75,#76,#77);
#80=DIRECTION('',(6.427876096865E-1,7.660444431190E-1,0.E0));
#81=VECTOR('',#80,5.136581080760E-1);
#82=CARTESIAN_POINT('',(2.675E0,3.95E0,0.E0));
#83=LINE('',#82,#81);
#84=DIRECTION('',(6.427876096865E-1,-7.660444431190E-1,0.E0));
#85=VECTOR('',#84,5.136581080760E-1);
#86=CARTESIAN_POINT('',(2.675E0,-3.95E0,0.E0));
#87=LINE('',#86,#85);
#88=CARTESIAN_POINT('',(2.675E0,0.E0,0.E0));
#89=DIRECTION('',(-1.E0,0.E0,0.E0));
#90=DIRECTION('',(0.E0,1.E0,0.E0));
#91=AXIS2_PLACEMENT_3D('',#88,#89,#90);
#93=CARTESIAN_POINT('',(1.175E0,5.15E0,0.E0));
#94=DIRECTION('',(0.E0,0.E0,1.E0));
#95=DIRECTION('',(9.150865337432E-1,-4.032575303227E-1,0.E0));
#96=AXIS2_PLACEMENT_3D('',#93,#94,#95);
#98=CARTESIAN_POINT('',(1.175E0,-5.15E0,0.E0));
#99=DIRECTION('',(0.E0,0.E0,-1.E0));
#100=DIRECTION('',(9.150865337432E-1,4.032575303227E-1,0.E0));
#101=AXIS2_PLACEMENT_3D('',#98,#99,#100);
#103=CARTESIAN_POINT('',(3.005173067486E0,0.E0,0.E0));
#104=DIRECTION('',(-1.E0,0.E0,0.E0));
#105=DIRECTION('',(0.E0,1.E0,0.E0));
#106=AXIS2_PLACEMENT_3D('',#103,#104,#105);
#108=CARTESIAN_POINT('',(3.005173067486E0,0.E0,0.E0));
#109=DIRECTION('',(1.E0,0.E0,0.E0));
#110=DIRECTION('',(0.E0,1.E0,0.E0));
#111=AXIS2_PLACEMENT_3D('',#108,#109,#110);
#113=CARTESIAN_POINT('',(3.005173067486E0,0.E0,0.E0));
#114=DIRECTION('',(1.E0,0.E0,0.E0));
#115=DIRECTION('',(0.E0,1.E0,0.E0));
#116=AXIS2_PLACEMENT_3D('',#113,#114,#115);
#118=DIRECTION('',(-6.427876096865E-1,7.660444431190E-1,0.E0));
#119=VECTOR('',#118,5.136581080760E-1);
#120=CARTESIAN_POINT('',(3.005173067486E0,5.956515060645E0,0.E0));
#121=LINE('',#120,#119);
#122=DIRECTION('',(-6.427876096865E-1,-7.660444431190E-1,0.E0));
#123=VECTOR('',#122,5.136581080760E-1);
#124=CARTESIAN_POINT('',(3.005173067486E0,-5.956515060645E0,0.E0));
#125=LINE('',#124,#123);
#126=CARTESIAN_POINT('',(3.005173067486E0,0.E0,0.E0));
#127=DIRECTION('',(-1.E0,0.E0,0.E0));
#128=DIRECTION('',(0.E0,1.E0,0.E0));
#129=AXIS2_PLACEMENT_3D('',#126,#127,#128);
#131=DIRECTION('',(-1.E0,0.E0,0.E0));
#132=VECTOR('',#131,5.35E0);
#133=CARTESIAN_POINT('',(2.675E0,6.35E0,0.E0));
#134=LINE('',#133,#132);
#135=DIRECTION('',(-1.E0,0.E0,0.E0));
#136=VECTOR('',#135,5.35E0);
#137=CARTESIAN_POINT('',(2.675E0,-6.35E0,0.E0));
#138=LINE('',#137,#136);
#139=CARTESIAN_POINT('',(2.675E0,0.E0,0.E0));
#140=DIRECTION('',(-1.E0,0.E0,0.E0));
#141=DIRECTION('',(0.E0,1.E0,0.E0));
#142=AXIS2_PLACEMENT_3D('',#139,#140,#141);
#144=CARTESIAN_POINT('',(2.675E0,0.E0,0.E0));
#145=DIRECTION('',(1.E0,0.E0,0.E0));
#146=DIRECTION('',(0.E0,1.E0,0.E0));
#147=AXIS2_PLACEMENT_3D('',#144,#145,#146);
#149=CARTESIAN_POINT('',(-2.675E0,3.95E0,0.E0));
#150=CARTESIAN_POINT('',(2.675E0,3.95E0,0.E0));
#151=VERTEX_POINT('',#149);
#152=VERTEX_POINT('',#150);
#153=CARTESIAN_POINT('',(2.675E0,6.35E0,0.E0));
#154=CARTESIAN_POINT('',(-2.675E0,6.35E0,0.E0));
#155=VERTEX_POINT('',#153);
#156=VERTEX_POINT('',#154);
#157=CARTESIAN_POINT('',(-2.675E0,-3.95E0,0.E0));
#158=CARTESIAN_POINT('',(2.675E0,-3.95E0,0.E0));
#159=VERTEX_POINT('',#157);
#160=VERTEX_POINT('',#158);
#161=CARTESIAN_POINT('',(2.675E0,-6.35E0,0.E0));
#162=CARTESIAN_POINT('',(-2.675E0,-6.35E0,0.E0));
#163=VERTEX_POINT('',#161);
#164=VERTEX_POINT('',#162);
#165=CARTESIAN_POINT('',(-3.005173067486E0,5.956515060645E0,0.E0));
#166=VERTEX_POINT('',#165);
#167=CARTESIAN_POINT('',(-3.005173067486E0,4.343484939355E0,0.E0));
#168=VERTEX_POINT('',#167);
#169=CARTESIAN_POINT('',(3.005173067486E0,4.343484939355E0,0.E0));
#170=VERTEX_POINT('',#169);
#171=CARTESIAN_POINT('',(3.005173067486E0,5.956515060645E0,0.E0));
#172=VERTEX_POINT('',#171);
#173=CARTESIAN_POINT('',(-3.005173067486E0,-5.956515060645E0,0.E0));
#174=VERTEX_POINT('',#173);
#175=CARTESIAN_POINT('',(-3.005173067486E0,-4.343484939355E0,0.E0));
#176=VERTEX_POINT('',#175);
#177=CARTESIAN_POINT('',(3.005173067486E0,-4.343484939355E0,0.E0));
#178=VERTEX_POINT('',#177);
#179=CARTESIAN_POINT('',(3.005173067486E0,-5.956515060645E0,0.E0));
#180=VERTEX_POINT('',#179);
#181=CARTESIAN_POINT('',(-2.840086533743E0,0.E0,0.E0));
#182=DIRECTION('',(1.E0,0.E0,0.E0));
#183=DIRECTION('',(0.E0,-1.E0,0.E0));
#184=AXIS2_PLACEMENT_3D('',#181,#182,#183);
#185=CONICAL_SURFACE('',#184,6.153257530323E0,5.E1);
#187=ORIENTED_EDGE('',*,*,#186,.F.);
#189=ORIENTED_EDGE('',*,*,#188,.T.);
#191=ORIENTED_EDGE('',*,*,#190,.T.);
#193=ORIENTED_EDGE('',*,*,#192,.F.);
#194=EDGE_LOOP('',(#187,#189,#191,#193));
#195=FACE_OUTER_BOUND('',#194,.F.);
#196=ADVANCED_FACE('',(#195),#185,.T.);
#197=CARTESIAN_POINT('',(-2.840086533743E0,0.E0,0.E0));
#198=DIRECTION('',(1.E0,0.E0,0.E0));
#199=DIRECTION('',(0.E0,-1.E0,0.E0));
#200=AXIS2_PLACEMENT_3D('',#197,#198,#199);
#201=CONICAL_SURFACE('',#200,6.153257530323E0,5.E1);
#202=ORIENTED_EDGE('',*,*,#186,.T.);
#204=ORIENTED_EDGE('',*,*,#203,.T.);
#205=ORIENTED_EDGE('',*,*,#190,.F.);
#207=ORIENTED_EDGE('',*,*,#206,.F.);
#208=EDGE_LOOP('',(#202,#204,#205,#207));
#209=FACE_OUTER_BOUND('',#208,.F.);
#210=ADVANCED_FACE('',(#209),#201,.T.);
#211=CARTESIAN_POINT('',(-1.175E0,0.E0,0.E0));
#212=DIRECTION('',(1.E0,0.E0,0.E0));
#213=DIRECTION('',(0.E0,-1.E0,0.E0));
#214=AXIS2_PLACEMENT_3D('',#211,#212,#213);
#215=TOROIDAL_SURFACE('',#214,5.15E0,2.E0);
#217=ORIENTED_EDGE('',*,*,#216,.T.);
#219=ORIENTED_EDGE('',*,*,#218,.T.);
#221=ORIENTED_EDGE('',*,*,#220,.F.);
#222=ORIENTED_EDGE('',*,*,#203,.F.);
#223=EDGE_LOOP('',(#217,#219,#221,#222));
#224=FACE_OUTER_BOUND('',#223,.F.);
#225=ADVANCED_FACE('',(#224),#215,.T.);
#226=CARTESIAN_POINT('',(-1.175E0,0.E0,0.E0));
#227=DIRECTION('',(1.E0,0.E0,0.E0));
#228=DIRECTION('',(0.E0,-1.E0,0.E0));
#229=AXIS2_PLACEMENT_3D('',#226,#227,#228);
#230=TOROIDAL_SURFACE('',#229,5.15E0,2.E0);
#231=ORIENTED_EDGE('',*,*,#216,.F.);
#232=ORIENTED_EDGE('',*,*,#192,.T.);
#233=ORIENTED_EDGE('',*,*,#220,.T.);
#235=ORIENTED_EDGE('',*,*,#234,.F.);
#236=EDGE_LOOP('',(#231,#232,#233,#235));
#237=FACE_OUTER_BOUND('',#236,.F.);
#238=ADVANCED_FACE('',(#237),#230,.T.);
#239=CARTESIAN_POINT('',(-2.840086533743E0,0.E0,0.E0));
#240=DIRECTION('',(-1.E0,0.E0,0.E0));
#241=DIRECTION('',(0.E0,1.E0,0.E0));
#242=AXIS2_PLACEMENT_3D('',#239,#240,#241);
#243=CONICAL_SURFACE('',#242,4.146742469677E0,5.E1);
#245=ORIENTED_EDGE('',*,*,#244,.F.);
#246=ORIENTED_EDGE('',*,*,#234,.T.);
#248=ORIENTED_EDGE('',*,*,#247,.T.);
#250=ORIENTED_EDGE('',*,*,#249,.F.);
#251=EDGE_LOOP('',(#245,#246,#248,#250));
#252=FACE_OUTER_BOUND('',#251,.F.);
#253=ADVANCED_FACE('',(#252),#243,.F.);
#254=CARTESIAN_POINT('',(-2.840086533743E0,0.E0,0.E0));
#255=DIRECTION('',(-1.E0,0.E0,0.E0));
#256=DIRECTION('',(0.E0,1.E0,0.E0));
#257=AXIS2_PLACEMENT_3D('',#254,#255,#256);
#258=CONICAL_SURFACE('',#257,4.146742469677E0,5.E1);
#259=ORIENTED_EDGE('',*,*,#244,.T.);
#261=ORIENTED_EDGE('',*,*,#260,.T.);
#262=ORIENTED_EDGE('',*,*,#247,.F.);
#263=ORIENTED_EDGE('',*,*,#218,.F.);
#264=EDGE_LOOP('',(#259,#261,#262,#263));
#265=FACE_OUTER_BOUND('',#264,.F.);
#266=ADVANCED_FACE('',(#265),#258,.F.);
#267=CARTESIAN_POINT('',(-3.4925E0,0.E0,0.E0));
#268=DIRECTION('',(1.E0,0.E0,0.E0));
#269=DIRECTION('',(0.E0,-1.E0,0.E0));
#270=AXIS2_PLACEMENT_3D('',#267,#268,#269);
#271=CYLINDRICAL_SURFACE('',#270,3.95E0);
#273=ORIENTED_EDGE('',*,*,#272,.T.);
#275=ORIENTED_EDGE('',*,*,#274,.T.);
#277=ORIENTED_EDGE('',*,*,#276,.F.);
#278=ORIENTED_EDGE('',*,*,#260,.F.);
#279=EDGE_LOOP('',(#273,#275,#277,#278));
#280=FACE_OUTER_BOUND('',#279,.F.);
#281=ADVANCED_FACE('',(#280),#271,.F.);
#282=CARTESIAN_POINT('',(-3.4925E0,0.E0,0.E0));
#283=DIRECTION('',(1.E0,0.E0,0.E0));
#284=DIRECTION('',(0.E0,-1.E0,0.E0));
#285=AXIS2_PLACEMENT_3D('',#282,#283,#284);
#286=CYLINDRICAL_SURFACE('',#285,3.95E0);
#287=ORIENTED_EDGE('',*,*,#272,.F.);
#288=ORIENTED_EDGE('',*,*,#249,.T.);
#289=ORIENTED_EDGE('',*,*,#276,.T.);
#291=ORIENTED_EDGE('',*,*,#290,.F.);
#292=EDGE_LOOP('',(#287,#288,#289,#291));
#293=FACE_OUTER_BOUND('',#292,.F.);
#294=ADVANCED_FACE('',(#293),#286,.F.);
#295=CARTESIAN_POINT('',(2.840086533743E0,0.E0,0.E0));
#296=DIRECTION('',(1.E0,0.E0,0.E0));
#297=DIRECTION('',(0.E0,-1.E0,0.E0));
#298=AXIS2_PLACEMENT_3D('',#295,#296,#297);
#299=CONICAL_SURFACE('',#298,4.146742469677E0,5.E1);
#301=ORIENTED_EDGE('',*,*,#300,.F.);
#302=ORIENTED_EDGE('',*,*,#290,.T.);
#304=ORIENTED_EDGE('',*,*,#303,.T.);
#306=ORIENTED_EDGE('',*,*,#305,.F.);
#307=EDGE_LOOP('',(#301,#302,#304,#306));
#308=FACE_OUTER_BOUND('',#307,.F.);
#309=ADVANCED_FACE('',(#308),#299,.F.);
#310=CARTESIAN_POINT('',(2.840086533743E0,0.E0,0.E0));
#311=DIRECTION('',(1.E0,0.E0,0.E0));
#312=DIRECTION('',(0.E0,-1.E0,0.E0));
#313=AXIS2_PLACEMENT_3D('',#310,#311,#312);
#314=CONICAL_SURFACE('',#313,4.146742469677E0,5.E1);
#315=ORIENTED_EDGE('',*,*,#300,.T.);
#317=ORIENTED_EDGE('',*,*,#316,.T.);
#318=ORIENTED_EDGE('',*,*,#303,.F.);
#319=ORIENTED_EDGE('',*,*,#274,.F.);
#320=EDGE_LOOP('',(#315,#317,#318,#319));
#321=FACE_OUTER_BOUND('',#320,.F.);
#322=ADVANCED_FACE('',(#321),#314,.F.);
#323=CARTESIAN_POINT('',(1.175E0,0.E0,0.E0));
#324=DIRECTION('',(1.E0,0.E0,0.E0));
#325=DIRECTION('',(0.E0,-1.E0,0.E0));
#326=AXIS2_PLACEMENT_3D('',#323,#324,#325);
#327=TOROIDAL_SURFACE('',#326,5.15E0,2.E0);
#329=ORIENTED_EDGE('',*,*,#328,.T.);
#331=ORIENTED_EDGE('',*,*,#330,.T.);
#333=ORIENTED_EDGE('',*,*,#332,.F.);
#334=ORIENTED_EDGE('',*,*,#316,.F.);
#335=EDGE_LOOP('',(#329,#331,#333,#334));
#336=FACE_OUTER_BOUND('',#335,.F.);
#337=ADVANCED_FACE('',(#336),#327,.T.);
#338=CARTESIAN_POINT('',(1.175E0,0.E0,0.E0));
#339=DIRECTION('',(1.E0,0.E0,0.E0));
#340=DIRECTION('',(0.E0,-1.E0,0.E0));
#341=AXIS2_PLACEMENT_3D('',#338,#339,#340);
#342=TOROIDAL_SURFACE('',#341,5.15E0,2.E0);
#343=ORIENTED_EDGE('',*,*,#328,.F.);
#344=ORIENTED_EDGE('',*,*,#305,.T.);
#345=ORIENTED_EDGE('',*,*,#332,.T.);
#347=ORIENTED_EDGE('',*,*,#346,.F.);
#348=EDGE_LOOP('',(#343,#344,#345,#347));
#349=FACE_OUTER_BOUND('',#348,.F.);
#350=ADVANCED_FACE('',(#349),#342,.T.);
#351=CARTESIAN_POINT('',(2.840086533743E0,0.E0,0.E0));
#352=DIRECTION('',(-1.E0,0.E0,0.E0));
#353=DIRECTION('',(0.E0,1.E0,0.E0));
#354=AXIS2_PLACEMENT_3D('',#351,#352,#353);
#355=CONICAL_SURFACE('',#354,6.153257530323E0,5.E1);
#357=ORIENTED_EDGE('',*,*,#356,.F.);
#358=ORIENTED_EDGE('',*,*,#346,.T.);
#360=ORIENTED_EDGE('',*,*,#359,.T.);
#362=ORIENTED_EDGE('',*,*,#361,.F.);
#363=EDGE_LOOP('',(#357,#358,#360,#362));
#364=FACE_OUTER_BOUND('',#363,.F.);
#365=ADVANCED_FACE('',(#364),#355,.T.);
#366=CARTESIAN_POINT('',(2.840086533743E0,0.E0,0.E0));
#367=DIRECTION('',(-1.E0,0.E0,0.E0));
#368=DIRECTION('',(0.E0,1.E0,0.E0));
#369=AXIS2_PLACEMENT_3D('',#366,#367,#368);
#370=CONICAL_SURFACE('',#369,6.153257530323E0,5.E1);
#371=ORIENTED_EDGE('',*,*,#356,.T.);
#373=ORIENTED_EDGE('',*,*,#372,.T.);
#374=ORIENTED_EDGE('',*,*,#359,.F.);
#375=ORIENTED_EDGE('',*,*,#330,.F.);
#376=EDGE_LOOP('',(#371,#373,#374,#375));
#377=FACE_OUTER_BOUND('',#376,.F.);
#378=ADVANCED_FACE('',(#377),#370,.T.);
#379=CARTESIAN_POINT('',(-3.4925E0,0.E0,0.E0));
#380=DIRECTION('',(1.E0,0.E0,0.E0));
#381=DIRECTION('',(0.E0,-1.E0,0.E0));
#382=AXIS2_PLACEMENT_3D('',#379,#380,#381);
#383=CYLINDRICAL_SURFACE('',#382,6.35E0);
#385=ORIENTED_EDGE('',*,*,#384,.T.);
#386=ORIENTED_EDGE('',*,*,#206,.T.);
#388=ORIENTED_EDGE('',*,*,#387,.F.);
#389=ORIENTED_EDGE('',*,*,#372,.F.);
#390=EDGE_LOOP('',(#385,#386,#388,#389));
#391=FACE_OUTER_BOUND('',#390,.F.);
#392=ADVANCED_FACE('',(#391),#383,.T.);
#393=CARTESIAN_POINT('',(-3.4925E0,0.E0,0.E0));
#394=DIRECTION('',(1.E0,0.E0,0.E0));
#395=DIRECTION('',(0.E0,-1.E0,0.E0));
#396=AXIS2_PLACEMENT_3D('',#393,#394,#395);
#397=CYLINDRICAL_SURFACE('',#396,6.35E0);
#398=ORIENTED_EDGE('',*,*,#384,.F.);
#399=ORIENTED_EDGE('',*,*,#361,.T.);
#400=ORIENTED_EDGE('',*,*,#387,.T.);
#401=ORIENTED_EDGE('',*,*,#188,.F.);
#402=EDGE_LOOP('',(#398,#399,#400,#401));
#403=FACE_OUTER_BOUND('',#402,.F.);
#404=ADVANCED_FACE('',(#403),#397,.T.);
#405=CLOSED_SHELL('',(#196,#210,#225,#238,#253,#266,#281,#294,#309,#322,#337,
#350,#365,#378,#392,#404));
#406=MANIFOLD_SOLID_BREP('',#405);
#408=DIMENSIONAL_EXPONENTS(0.E0,0.E0,0.E0,0.E0,0.E0,0.E0,0.E0);
#410=PLANE_ANGLE_MEASURE_WITH_UNIT(PLANE_ANGLE_MEASURE(1.745329251994E-2),#409);
#411=(CONVERSION_BASED_UNIT('DEGREE',#410)NAMED_UNIT(*)PLANE_ANGLE_UNIT());
#413=UNCERTAINTY_MEASURE_WITH_UNIT(LENGTH_MEASURE(1.E-4),#407,'closure',
'Maximum model space distance between geometric entities at asserted connectivities');
#414=(GEOMETRIC_REPRESENTATION_CONTEXT(3)GLOBAL_UNCERTAINTY_ASSIGNED_CONTEXT((
#413))GLOBAL_UNIT_ASSIGNED_CONTEXT((#407,#411,#412))REPRESENTATION_CONTEXT
('ID1','3'));
#416=APPLICATION_CONTEXT(
'CONFIGURATION CONTROLLED 3D DESIGNS OF MECHANICAL PARTS AND ASSEMBLIES');
#417=APPLICATION_PROTOCOL_DEFINITION('international standard',
'config_control_design',1994,#416);
#418=DESIGN_CONTEXT('',#416,'design');
#419=MECHANICAL_CONTEXT('',#416,'mechanical');
#420=PRODUCT('C61020-A0012-C027-06-7606','C61020-A0012-C027-06-7606',
'NOT SPECIFIED',(#419));
#421=PRODUCT_DEFINITION_FORMATION_WITH_SPECIFIED_SOURCE('19','LAST_VERSION',
#420,.MADE.);
#425=PRODUCT_CATEGORY('part','');
#426=PRODUCT_RELATED_PRODUCT_CATEGORY('detail','',(#420));
#427=PRODUCT_CATEGORY_RELATIONSHIP('','',#425,#426);
#428=SECURITY_CLASSIFICATION_LEVEL('unclassified');
#429=SECURITY_CLASSIFICATION('','',#428);
#430=CC_DESIGN_SECURITY_CLASSIFICATION(#429,(#421));
#431=APPROVAL_STATUS('approved');
#432=APPROVAL(#431,'');
#433=CC_DESIGN_APPROVAL(#432,(#429,#421,#422));
#434=CALENDAR_DATE(118,8,6);
#435=COORDINATED_UNIVERSAL_TIME_OFFSET(2,0,.AHEAD.);
#436=LOCAL_TIME(15,13,2.3E1,#435);
#437=DATE_AND_TIME(#434,#436);
#438=APPROVAL_DATE_TIME(#437,#432);
#439=DATE_TIME_ROLE('creation_date');
#440=CC_DESIGN_DATE_AND_TIME_ASSIGNMENT(#437,#439,(#422));
#441=DATE_TIME_ROLE('classification_date');
#442=CC_DESIGN_DATE_AND_TIME_ASSIGNMENT(#437,#441,(#429));
#443=PERSON('UNSPECIFIED','UNSPECIFIED',$,$,$,$);
#444=ORGANIZATION('UNSPECIFIED','UNSPECIFIED','UNSPECIFIED');
#445=PERSON_AND_ORGANIZATION(#443,#444);
#446=APPROVAL_ROLE('approver');
#447=APPROVAL_PERSON_ORGANIZATION(#445,#432,#446);
#448=PERSON_AND_ORGANIZATION_ROLE('creator');
#449=CC_DESIGN_PERSON_AND_ORGANIZATION_ASSIGNMENT(#445,#448,(#421,#422));
#450=PERSON_AND_ORGANIZATION_ROLE('design_supplier');
#451=CC_DESIGN_PERSON_AND_ORGANIZATION_ASSIGNMENT(#445,#450,(#421));
#452=PERSON_AND_ORGANIZATION_ROLE('classification_officer');
#453=CC_DESIGN_PERSON_AND_ORGANIZATION_ASSIGNMENT(#445,#452,(#429));
#454=PERSON_AND_ORGANIZATION_ROLE('design_owner');
#455=CC_DESIGN_PERSON_AND_ORGANIZATION_ASSIGNMENT(#445,#454,(#420));
#5=CIRCLE('',#4,6.35E0);
#18=CIRCLE('',#17,6.35E0);
#23=CIRCLE('',#22,2.E0);
#28=CIRCLE('',#27,2.E0);
#33=CIRCLE('',#32,5.956515060645E0);
#38=CIRCLE('',#37,5.956515060645E0);
#43=CIRCLE('',#42,4.343484939355E0);
#56=CIRCLE('',#55,4.343484939355E0);
#69=CIRCLE('',#68,3.95E0);
#74=CIRCLE('',#73,3.95E0);
#79=CIRCLE('',#78,3.95E0);
#92=CIRCLE('',#91,3.95E0);
#97=CIRCLE('',#96,2.E0);
#102=CIRCLE('',#101,2.E0);
#107=CIRCLE('',#106,4.343484939355E0);
#112=CIRCLE('',#111,4.343484939355E0);
#117=CIRCLE('',#116,5.956515060645E0);
#130=CIRCLE('',#129,5.956515060645E0);
#143=CIRCLE('',#142,6.35E0);
#148=CIRCLE('',#147,6.35E0);
#186=EDGE_CURVE('',#156,#166,#9,.T.);
#188=EDGE_CURVE('',#156,#164,#5,.T.);
#190=EDGE_CURVE('',#164,#174,#13,.T.);
#192=EDGE_CURVE('',#166,#174,#38,.T.);
#203=EDGE_CURVE('',#166,#174,#33,.T.);
#206=EDGE_CURVE('',#156,#164,#18,.T.);
#216=EDGE_CURVE('',#166,#168,#23,.T.);
#218=EDGE_CURVE('',#168,#176,#56,.T.);
#220=EDGE_CURVE('',#174,#176,#28,.T.);
#234=EDGE_CURVE('',#168,#176,#43,.T.);
#244=EDGE_CURVE('',#168,#151,#47,.T.);
#247=EDGE_CURVE('',#176,#159,#51,.T.);
#249=EDGE_CURVE('',#151,#159,#74,.T.);
#260=EDGE_CURVE('',#151,#159,#69,.T.);
#272=EDGE_CURVE('',#151,#152,#60,.T.);
#274=EDGE_CURVE('',#152,#160,#92,.T.);
#276=EDGE_CURVE('',#159,#160,#64,.T.);
#290=EDGE_CURVE('',#152,#160,#79,.T.);
#300=EDGE_CURVE('',#152,#170,#83,.T.);
#303=EDGE_CURVE('',#160,#178,#87,.T.);
#305=EDGE_CURVE('',#170,#178,#112,.T.);
#316=EDGE_CURVE('',#170,#178,#107,.T.);
#328=EDGE_CURVE('',#170,#172,#97,.T.);
#330=EDGE_CURVE('',#172,#180,#130,.T.);
#332=EDGE_CURVE('',#178,#180,#102,.T.);
#346=EDGE_CURVE('',#172,#180,#117,.T.);
#356=EDGE_CURVE('',#172,#155,#121,.T.);
#359=EDGE_CURVE('',#180,#163,#125,.T.);
#361=EDGE_CURVE('',#155,#163,#148,.T.);
#372=EDGE_CURVE('',#155,#163,#143,.T.);
#384=EDGE_CURVE('',#155,#156,#134,.T.);
#387=EDGE_CURVE('',#163,#164,#138,.T.);
#407=(LENGTH_UNIT()NAMED_UNIT(*)SI_UNIT(.MILLI.,.METRE.));
#409=(NAMED_UNIT(*)PLANE_ANGLE_UNIT()SI_UNIT($,.RADIAN.));
#412=(NAMED_UNIT(*)SI_UNIT($,.STERADIAN.)SOLID_ANGLE_UNIT());
#415=ADVANCED_BREP_SHAPE_REPRESENTATION('',(#406),#414);
#422=PRODUCT_DEFINITION('design','',#421,#418);
#423=PRODUCT_DEFINITION_SHAPE('','SHAPE FOR C61020-A0012-C027-06-7606.',#422);
#424=SHAPE_DEFINITION_REPRESENTATION(#423,#415);
ENDSEC;
END-ISO-10303-21;
