ISO-10303-21;
HEADER;
FILE_DESCRIPTION((''),'2;1');
FILE_NAME('C61036-A0029-C026-01-7606','2018-05-10T',('ec7121'),(''),
'PRO/ENGINEER BY PARAMETRIC TECHNOLOGY CORPORATION, 2014000',
'PRO/ENGINEER BY PARAMETRIC TECHNOLOGY CORPORATION, 2014000','');
FILE_SCHEMA(('CONFIG_CONTROL_DESIGN'));
ENDSEC;
DATA;
#1=DIRECTION('',(0.E0,0.E0,1.E0));
#2=VECTOR('',#1,4.2E0);
#3=CARTESIAN_POINT('',(-1.85E0,-1.85E0,-6.5E0));
#4=LINE('',#3,#2);
#5=DIRECTION('',(-1.E0,0.E0,0.E0));
#6=VECTOR('',#5,2.E0);
#7=CARTESIAN_POINT('',(-2.15E0,-1.85E0,-2.E0));
#8=LINE('',#7,#6);
#9=DIRECTION('',(0.E0,0.E0,-1.E0));
#10=VECTOR('',#9,4.2E0);
#11=CARTESIAN_POINT('',(-4.45E0,-1.85E0,-2.3E0));
#12=LINE('',#11,#10);
#13=DIRECTION('',(-1.E0,0.E0,0.E0));
#14=VECTOR('',#13,1.85E0);
#15=CARTESIAN_POINT('',(-4.45E0,-1.85E0,-6.5E0));
#16=LINE('',#15,#14);
#17=DIRECTION('',(0.E0,0.E0,1.E0));
#18=VECTOR('',#17,5.5E0);
#19=CARTESIAN_POINT('',(-6.3E0,-1.85E0,-6.5E0));
#20=LINE('',#19,#18);
#21=DIRECTION('',(1.E0,0.E0,0.E0));
#22=VECTOR('',#21,1.06E1);
#23=CARTESIAN_POINT('',(-5.3E0,-1.85E0,0.E0));
#24=LINE('',#23,#22);
#25=DIRECTION('',(0.E0,0.E0,-1.E0));
#26=VECTOR('',#25,5.5E0);
#27=CARTESIAN_POINT('',(6.3E0,-1.85E0,-1.E0));
#28=LINE('',#27,#26);
#29=DIRECTION('',(-1.E0,0.E0,0.E0));
#30=VECTOR('',#29,1.85E0);
#31=CARTESIAN_POINT('',(6.3E0,-1.85E0,-6.5E0));
#32=LINE('',#31,#30);
#33=DIRECTION('',(0.E0,0.E0,1.E0));
#34=VECTOR('',#33,4.2E0);
#35=CARTESIAN_POINT('',(4.45E0,-1.85E0,-6.5E0));
#36=LINE('',#35,#34);
#37=DIRECTION('',(-1.E0,0.E0,0.E0));
#38=VECTOR('',#37,2.E0);
#39=CARTESIAN_POINT('',(4.15E0,-1.85E0,-2.E0));
#40=LINE('',#39,#38);
#41=DIRECTION('',(0.E0,0.E0,-1.E0));
#42=VECTOR('',#41,4.2E0);
#43=CARTESIAN_POINT('',(1.85E0,-1.85E0,-2.3E0));
#44=LINE('',#43,#42);
#45=DIRECTION('',(-1.E0,0.E0,0.E0));
#46=VECTOR('',#45,3.7E0);
#47=CARTESIAN_POINT('',(1.85E0,-1.85E0,-6.5E0));
#48=LINE('',#47,#46);
#49=DIRECTION('',(0.E0,1.E0,0.E0));
#50=VECTOR('',#49,3.7E0);
#51=CARTESIAN_POINT('',(-1.85E0,-1.85E0,-2.3E0));
#52=LINE('',#51,#50);
#53=DIRECTION('',(0.E0,1.E0,0.E0));
#54=VECTOR('',#53,3.7E0);
#55=CARTESIAN_POINT('',(-1.85E0,-1.85E0,-6.5E0));
#56=LINE('',#55,#54);
#57=CARTESIAN_POINT('',(-2.15E0,-1.85E0,-2.3E0));
#58=DIRECTION('',(0.E0,1.E0,0.E0));
#59=DIRECTION('',(0.E0,0.E0,1.E0));
#60=AXIS2_PLACEMENT_3D('',#57,#58,#59);
#62=CARTESIAN_POINT('',(-2.15E0,1.85E0,-2.3E0));
#63=DIRECTION('',(0.E0,-1.E0,0.E0));
#64=DIRECTION('',(1.E0,0.E0,0.E0));
#65=AXIS2_PLACEMENT_3D('',#62,#63,#64);
#67=DIRECTION('',(0.E0,1.E0,0.E0));
#68=VECTOR('',#67,3.7E0);
#69=CARTESIAN_POINT('',(-4.15E0,-1.85E0,-2.E0));
#70=LINE('',#69,#68);
#71=DIRECTION('',(0.E0,1.E0,0.E0));
#72=VECTOR('',#71,3.7E0);
#73=CARTESIAN_POINT('',(-2.15E0,-1.85E0,-2.E0));
#74=LINE('',#73,#72);
#75=CARTESIAN_POINT('',(-4.15E0,-1.85E0,-2.3E0));
#76=DIRECTION('',(0.E0,1.E0,0.E0));
#77=DIRECTION('',(-1.E0,0.E0,0.E0));
#78=AXIS2_PLACEMENT_3D('',#75,#76,#77);
#80=CARTESIAN_POINT('',(-4.15E0,1.85E0,-2.3E0));
#81=DIRECTION('',(0.E0,-1.E0,0.E0));
#82=DIRECTION('',(0.E0,0.E0,1.E0));
#83=AXIS2_PLACEMENT_3D('',#80,#81,#82);
#85=DIRECTION('',(0.E0,1.E0,0.E0));
#86=VECTOR('',#85,3.7E0);
#87=CARTESIAN_POINT('',(-4.45E0,-1.85E0,-2.3E0));
#88=LINE('',#87,#86);
#89=DIRECTION('',(-1.E0,0.E0,0.E0));
#90=VECTOR('',#89,2.E0);
#91=CARTESIAN_POINT('',(-2.15E0,1.85E0,-2.E0));
#92=LINE('',#91,#90);
#93=DIRECTION('',(0.E0,0.E0,1.E0));
#94=VECTOR('',#93,4.2E0);
#95=CARTESIAN_POINT('',(-1.85E0,1.85E0,-6.5E0));
#96=LINE('',#95,#94);
#97=DIRECTION('',(-1.E0,0.E0,0.E0));
#98=VECTOR('',#97,3.7E0);
#99=CARTESIAN_POINT('',(1.85E0,1.85E0,-6.5E0));
#100=LINE('',#99,#98);
#101=DIRECTION('',(0.E0,0.E0,-1.E0));
#102=VECTOR('',#101,4.2E0);
#103=CARTESIAN_POINT('',(1.85E0,1.85E0,-2.3E0));
#104=LINE('',#103,#102);
#105=DIRECTION('',(-1.E0,0.E0,0.E0));
#106=VECTOR('',#105,2.E0);
#107=CARTESIAN_POINT('',(4.15E0,1.85E0,-2.E0));
#108=LINE('',#107,#106);
#109=DIRECTION('',(0.E0,0.E0,1.E0));
#110=VECTOR('',#109,4.2E0);
#111=CARTESIAN_POINT('',(4.45E0,1.85E0,-6.5E0));
#112=LINE('',#111,#110);
#113=DIRECTION('',(-1.E0,0.E0,0.E0));
#114=VECTOR('',#113,1.85E0);
#115=CARTESIAN_POINT('',(6.3E0,1.85E0,-6.5E0));
#116=LINE('',#115,#114);
#117=DIRECTION('',(0.E0,0.E0,-1.E0));
#118=VECTOR('',#117,5.5E0);
#119=CARTESIAN_POINT('',(6.3E0,1.85E0,-1.E0));
#120=LINE('',#119,#118);
#121=DIRECTION('',(1.E0,0.E0,0.E0));
#122=VECTOR('',#121,1.06E1);
#123=CARTESIAN_POINT('',(-5.3E0,1.85E0,0.E0));
#124=LINE('',#123,#122);
#125=DIRECTION('',(0.E0,0.E0,1.E0));
#126=VECTOR('',#125,5.5E0);
#127=CARTESIAN_POINT('',(-6.3E0,1.85E0,-6.5E0));
#128=LINE('',#127,#126);
#129=DIRECTION('',(-1.E0,0.E0,0.E0));
#130=VECTOR('',#129,1.85E0);
#131=CARTESIAN_POINT('',(-4.45E0,1.85E0,-6.5E0));
#132=LINE('',#131,#130);
#133=DIRECTION('',(0.E0,0.E0,-1.E0));
#134=VECTOR('',#133,4.2E0);
#135=CARTESIAN_POINT('',(-4.45E0,1.85E0,-2.3E0));
#136=LINE('',#135,#134);
#137=DIRECTION('',(0.E0,1.E0,0.E0));
#138=VECTOR('',#137,3.7E0);
#139=CARTESIAN_POINT('',(1.85E0,-1.85E0,-6.5E0));
#140=LINE('',#139,#138);
#141=DIRECTION('',(0.E0,1.E0,0.E0));
#142=VECTOR('',#141,3.7E0);
#143=CARTESIAN_POINT('',(1.85E0,-1.85E0,-2.3E0));
#144=LINE('',#143,#142);
#145=CARTESIAN_POINT('',(2.15E0,-1.85E0,-2.3E0));
#146=DIRECTION('',(0.E0,1.E0,0.E0));
#147=DIRECTION('',(-1.E0,0.E0,0.E0));
#148=AXIS2_PLACEMENT_3D('',#145,#146,#147);
#150=CARTESIAN_POINT('',(2.15E0,1.85E0,-2.3E0));
#151=DIRECTION('',(0.E0,-1.E0,0.E0));
#152=DIRECTION('',(0.E0,0.E0,1.E0));
#153=AXIS2_PLACEMENT_3D('',#150,#151,#152);
#155=DIRECTION('',(0.E0,1.E0,0.E0));
#156=VECTOR('',#155,3.7E0);
#157=CARTESIAN_POINT('',(4.15E0,-1.85E0,-2.E0));
#158=LINE('',#157,#156);
#159=DIRECTION('',(0.E0,1.E0,0.E0));
#160=VECTOR('',#159,3.7E0);
#161=CARTESIAN_POINT('',(2.15E0,-1.85E0,-2.E0));
#162=LINE('',#161,#160);
#163=CARTESIAN_POINT('',(4.15E0,-1.85E0,-2.3E0));
#164=DIRECTION('',(0.E0,1.E0,0.E0));
#165=DIRECTION('',(0.E0,0.E0,1.E0));
#166=AXIS2_PLACEMENT_3D('',#163,#164,#165);
#168=CARTESIAN_POINT('',(4.15E0,1.85E0,-2.3E0));
#169=DIRECTION('',(0.E0,-1.E0,0.E0));
#170=DIRECTION('',(1.E0,0.E0,0.E0));
#171=AXIS2_PLACEMENT_3D('',#168,#169,#170);
#173=DIRECTION('',(0.E0,1.E0,0.E0));
#174=VECTOR('',#173,3.7E0);
#175=CARTESIAN_POINT('',(4.45E0,-1.85E0,-2.3E0));
#176=LINE('',#175,#174);
#177=DIRECTION('',(0.E0,1.E0,0.E0));
#178=VECTOR('',#177,3.7E0);
#179=CARTESIAN_POINT('',(4.45E0,-1.85E0,-6.5E0));
#180=LINE('',#179,#178);
#181=DIRECTION('',(0.E0,1.E0,0.E0));
#182=VECTOR('',#181,3.7E0);
#183=CARTESIAN_POINT('',(6.3E0,-1.85E0,-6.5E0));
#184=LINE('',#183,#182);
#185=DIRECTION('',(0.E0,-1.E0,0.E0));
#186=VECTOR('',#185,3.7E0);
#187=CARTESIAN_POINT('',(5.3E0,1.85E0,0.E0));
#188=LINE('',#187,#186);
#189=CARTESIAN_POINT('',(5.3E0,1.85E0,-1.E0));
#190=DIRECTION('',(0.E0,1.E0,0.E0));
#191=DIRECTION('',(0.E0,0.E0,1.E0));
#192=AXIS2_PLACEMENT_3D('',#189,#190,#191);
#194=DIRECTION('',(0.E0,-1.E0,0.E0));
#195=VECTOR('',#194,3.7E0);
#196=CARTESIAN_POINT('',(6.3E0,1.85E0,-1.E0));
#197=LINE('',#196,#195);
#198=CARTESIAN_POINT('',(5.3E0,-1.85E0,-1.E0));
#199=DIRECTION('',(0.E0,-1.E0,0.E0));
#200=DIRECTION('',(1.E0,0.E0,0.E0));
#201=AXIS2_PLACEMENT_3D('',#198,#199,#200);
#203=DIRECTION('',(0.E0,-1.E0,0.E0));
#204=VECTOR('',#203,3.7E0);
#205=CARTESIAN_POINT('',(-6.3E0,1.85E0,-1.E0));
#206=LINE('',#205,#204);
#207=CARTESIAN_POINT('',(-5.3E0,1.85E0,-1.E0));
#208=DIRECTION('',(0.E0,1.E0,0.E0));
#209=DIRECTION('',(-1.E0,0.E0,0.E0));
#210=AXIS2_PLACEMENT_3D('',#207,#208,#209);
#212=DIRECTION('',(0.E0,-1.E0,0.E0));
#213=VECTOR('',#212,3.7E0);
#214=CARTESIAN_POINT('',(-5.3E0,1.85E0,0.E0));
#215=LINE('',#214,#213);
#216=CARTESIAN_POINT('',(-5.3E0,-1.85E0,-1.E0));
#217=DIRECTION('',(0.E0,-1.E0,0.E0));
#218=DIRECTION('',(0.E0,0.E0,1.E0));
#219=AXIS2_PLACEMENT_3D('',#216,#217,#218);
#221=DIRECTION('',(0.E0,1.E0,0.E0));
#222=VECTOR('',#221,3.7E0);
#223=CARTESIAN_POINT('',(-6.3E0,-1.85E0,-6.5E0));
#224=LINE('',#223,#222);
#225=DIRECTION('',(0.E0,1.E0,0.E0));
#226=VECTOR('',#225,3.7E0);
#227=CARTESIAN_POINT('',(-4.45E0,-1.85E0,-6.5E0));
#228=LINE('',#227,#226);
#229=CARTESIAN_POINT('',(6.3E0,-1.85E0,-6.5E0));
#230=CARTESIAN_POINT('',(4.45E0,-1.85E0,-6.5E0));
#231=VERTEX_POINT('',#229);
#232=VERTEX_POINT('',#230);
#233=CARTESIAN_POINT('',(1.85E0,-1.85E0,-6.5E0));
#234=CARTESIAN_POINT('',(-1.85E0,-1.85E0,-6.5E0));
#235=VERTEX_POINT('',#233);
#236=VERTEX_POINT('',#234);
#237=CARTESIAN_POINT('',(6.3E0,1.85E0,-6.5E0));
#238=CARTESIAN_POINT('',(4.45E0,1.85E0,-6.5E0));
#239=VERTEX_POINT('',#237);
#240=VERTEX_POINT('',#238);
#241=CARTESIAN_POINT('',(1.85E0,1.85E0,-6.5E0));
#242=CARTESIAN_POINT('',(-1.85E0,1.85E0,-6.5E0));
#243=VERTEX_POINT('',#241);
#244=VERTEX_POINT('',#242);
#245=CARTESIAN_POINT('',(5.3E0,1.85E0,0.E0));
#246=CARTESIAN_POINT('',(5.3E0,-1.85E0,0.E0));
#247=VERTEX_POINT('',#245);
#248=VERTEX_POINT('',#246);
#249=CARTESIAN_POINT('',(6.3E0,1.85E0,-1.E0));
#250=VERTEX_POINT('',#249);
#251=CARTESIAN_POINT('',(6.3E0,-1.85E0,-1.E0));
#252=VERTEX_POINT('',#251);
#253=CARTESIAN_POINT('',(-5.3E0,-1.85E0,0.E0));
#254=VERTEX_POINT('',#253);
#255=CARTESIAN_POINT('',(-5.3E0,1.85E0,0.E0));
#256=VERTEX_POINT('',#255);
#257=CARTESIAN_POINT('',(-4.45E0,-1.85E0,-6.5E0));
#258=CARTESIAN_POINT('',(-6.3E0,-1.85E0,-6.5E0));
#259=VERTEX_POINT('',#257);
#260=VERTEX_POINT('',#258);
#261=CARTESIAN_POINT('',(-4.45E0,1.85E0,-6.5E0));
#262=CARTESIAN_POINT('',(-6.3E0,1.85E0,-6.5E0));
#263=VERTEX_POINT('',#261);
#264=VERTEX_POINT('',#262);
#265=CARTESIAN_POINT('',(-6.3E0,1.85E0,-1.E0));
#266=CARTESIAN_POINT('',(-6.3E0,-1.85E0,-1.E0));
#267=VERTEX_POINT('',#265);
#268=VERTEX_POINT('',#266);
#269=CARTESIAN_POINT('',(-4.45E0,-1.85E0,-2.3E0));
#270=CARTESIAN_POINT('',(-4.45E0,1.85E0,-2.3E0));
#271=VERTEX_POINT('',#269);
#272=VERTEX_POINT('',#270);
#273=CARTESIAN_POINT('',(-4.15E0,-1.85E0,-2.E0));
#274=CARTESIAN_POINT('',(-4.15E0,1.85E0,-2.E0));
#275=VERTEX_POINT('',#273);
#276=VERTEX_POINT('',#274);
#277=CARTESIAN_POINT('',(-2.15E0,-1.85E0,-2.E0));
#278=CARTESIAN_POINT('',(-2.15E0,1.85E0,-2.E0));
#279=VERTEX_POINT('',#277);
#280=VERTEX_POINT('',#278);
#281=CARTESIAN_POINT('',(-1.85E0,-1.85E0,-2.3E0));
#282=CARTESIAN_POINT('',(-1.85E0,1.85E0,-2.3E0));
#283=VERTEX_POINT('',#281);
#284=VERTEX_POINT('',#282);
#285=CARTESIAN_POINT('',(4.15E0,-1.85E0,-2.E0));
#286=CARTESIAN_POINT('',(4.15E0,1.85E0,-2.E0));
#287=VERTEX_POINT('',#285);
#288=VERTEX_POINT('',#286);
#289=CARTESIAN_POINT('',(4.45E0,-1.85E0,-2.3E0));
#290=CARTESIAN_POINT('',(4.45E0,1.85E0,-2.3E0));
#291=VERTEX_POINT('',#289);
#292=VERTEX_POINT('',#290);
#293=CARTESIAN_POINT('',(1.85E0,-1.85E0,-2.3E0));
#294=CARTESIAN_POINT('',(1.85E0,1.85E0,-2.3E0));
#295=VERTEX_POINT('',#293);
#296=VERTEX_POINT('',#294);
#297=CARTESIAN_POINT('',(2.15E0,-1.85E0,-2.E0));
#298=CARTESIAN_POINT('',(2.15E0,1.85E0,-2.E0));
#299=VERTEX_POINT('',#297);
#300=VERTEX_POINT('',#298);
#301=CARTESIAN_POINT('',(0.E0,-1.85E0,0.E0));
#302=DIRECTION('',(0.E0,1.E0,0.E0));
#303=DIRECTION('',(1.E0,0.E0,0.E0));
#304=AXIS2_PLACEMENT_3D('',#301,#302,#303);
#305=PLANE('',#304);
#307=ORIENTED_EDGE('',*,*,#306,.T.);
#309=ORIENTED_EDGE('',*,*,#308,.F.);
#311=ORIENTED_EDGE('',*,*,#310,.T.);
#313=ORIENTED_EDGE('',*,*,#312,.F.);
#315=ORIENTED_EDGE('',*,*,#314,.T.);
#317=ORIENTED_EDGE('',*,*,#316,.T.);
#319=ORIENTED_EDGE('',*,*,#318,.T.);
#321=ORIENTED_EDGE('',*,*,#320,.F.);
#323=ORIENTED_EDGE('',*,*,#322,.T.);
#325=ORIENTED_EDGE('',*,*,#324,.F.);
#327=ORIENTED_EDGE('',*,*,#326,.T.);
#329=ORIENTED_EDGE('',*,*,#328,.T.);
#331=ORIENTED_EDGE('',*,*,#330,.T.);
#333=ORIENTED_EDGE('',*,*,#332,.F.);
#335=ORIENTED_EDGE('',*,*,#334,.T.);
#337=ORIENTED_EDGE('',*,*,#336,.F.);
#339=ORIENTED_EDGE('',*,*,#338,.T.);
#341=ORIENTED_EDGE('',*,*,#340,.T.);
#342=EDGE_LOOP('',(#307,#309,#311,#313,#315,#317,#319,#321,#323,#325,#327,#329,
#331,#333,#335,#337,#339,#341));
#343=FACE_OUTER_BOUND('',#342,.F.);
#344=ADVANCED_FACE('',(#343),#305,.F.);
#345=CARTESIAN_POINT('',(-1.85E0,-1.85E0,-6.5E0));
#346=DIRECTION('',(-1.E0,0.E0,0.E0));
#347=DIRECTION('',(0.E0,0.E0,1.E0));
#348=AXIS2_PLACEMENT_3D('',#345,#346,#347);
#349=PLANE('',#348);
#351=ORIENTED_EDGE('',*,*,#350,.F.);
#352=ORIENTED_EDGE('',*,*,#306,.F.);
#354=ORIENTED_EDGE('',*,*,#353,.T.);
#356=ORIENTED_EDGE('',*,*,#355,.T.);
#357=EDGE_LOOP('',(#351,#352,#354,#356));
#358=FACE_OUTER_BOUND('',#357,.F.);
#359=ADVANCED_FACE('',(#358),#349,.T.);
#360=CARTESIAN_POINT('',(-2.15E0,-1.85133704E0,-2.3E0));
#361=DIRECTION('',(0.E0,1.E0,0.E0));
#362=DIRECTION('',(0.E0,0.E0,1.E0));
#363=AXIS2_PLACEMENT_3D('',#360,#361,#362);
#364=CYLINDRICAL_SURFACE('',#363,3.E-1);
#366=ORIENTED_EDGE('',*,*,#365,.F.);
#367=ORIENTED_EDGE('',*,*,#308,.T.);
#368=ORIENTED_EDGE('',*,*,#350,.T.);
#370=ORIENTED_EDGE('',*,*,#369,.T.);
#371=EDGE_LOOP('',(#366,#367,#368,#370));
#372=FACE_OUTER_BOUND('',#371,.F.);
#373=ADVANCED_FACE('',(#372),#364,.F.);
#374=CARTESIAN_POINT('',(-1.85E0,-1.85E0,-2.E0));
#375=DIRECTION('',(0.E0,0.E0,-1.E0));
#376=DIRECTION('',(-1.E0,0.E0,0.E0));
#377=AXIS2_PLACEMENT_3D('',#374,#375,#376);
#378=PLANE('',#377);
#380=ORIENTED_EDGE('',*,*,#379,.F.);
#381=ORIENTED_EDGE('',*,*,#310,.F.);
#382=ORIENTED_EDGE('',*,*,#365,.T.);
#384=ORIENTED_EDGE('',*,*,#383,.T.);
#385=EDGE_LOOP('',(#380,#381,#382,#384));
#386=FACE_OUTER_BOUND('',#385,.F.);
#387=ADVANCED_FACE('',(#386),#378,.T.);
#388=CARTESIAN_POINT('',(-4.15E0,-1.85133704E0,-2.3E0));
#389=DIRECTION('',(0.E0,1.E0,0.E0));
#390=DIRECTION('',(-1.E0,0.E0,0.E0));
#391=AXIS2_PLACEMENT_3D('',#388,#389,#390);
#392=CYLINDRICAL_SURFACE('',#391,3.E-1);
#394=ORIENTED_EDGE('',*,*,#393,.F.);
#395=ORIENTED_EDGE('',*,*,#312,.T.);
#396=ORIENTED_EDGE('',*,*,#379,.T.);
#398=ORIENTED_EDGE('',*,*,#397,.T.);
#399=EDGE_LOOP('',(#394,#395,#396,#398));
#400=FACE_OUTER_BOUND('',#399,.F.);
#401=ADVANCED_FACE('',(#400),#392,.F.);
#402=CARTESIAN_POINT('',(-4.45E0,-1.85E0,-2.E0));
#403=DIRECTION('',(1.E0,0.E0,0.E0));
#404=DIRECTION('',(0.E0,0.E0,-1.E0));
#405=AXIS2_PLACEMENT_3D('',#402,#403,#404);
#406=PLANE('',#405);
#407=ORIENTED_EDGE('',*,*,#393,.T.);
#409=ORIENTED_EDGE('',*,*,#408,.T.);
#411=ORIENTED_EDGE('',*,*,#410,.F.);
#412=ORIENTED_EDGE('',*,*,#314,.F.);
#413=EDGE_LOOP('',(#407,#409,#411,#412));
#414=FACE_OUTER_BOUND('',#413,.F.);
#415=ADVANCED_FACE('',(#414),#406,.T.);
#416=CARTESIAN_POINT('',(0.E0,1.85E0,0.E0));
#417=DIRECTION('',(0.E0,1.E0,0.E0));
#418=DIRECTION('',(1.E0,0.E0,0.E0));
#419=AXIS2_PLACEMENT_3D('',#416,#417,#418);
#420=PLANE('',#419);
#421=ORIENTED_EDGE('',*,*,#383,.F.);
#422=ORIENTED_EDGE('',*,*,#369,.F.);
#423=ORIENTED_EDGE('',*,*,#355,.F.);
#425=ORIENTED_EDGE('',*,*,#424,.F.);
#427=ORIENTED_EDGE('',*,*,#426,.F.);
#429=ORIENTED_EDGE('',*,*,#428,.F.);
#431=ORIENTED_EDGE('',*,*,#430,.F.);
#433=ORIENTED_EDGE('',*,*,#432,.F.);
#435=ORIENTED_EDGE('',*,*,#434,.F.);
#437=ORIENTED_EDGE('',*,*,#436,.F.);
#439=ORIENTED_EDGE('',*,*,#438,.F.);
#441=ORIENTED_EDGE('',*,*,#440,.F.);
#443=ORIENTED_EDGE('',*,*,#442,.F.);
#445=ORIENTED_EDGE('',*,*,#444,.F.);
#447=ORIENTED_EDGE('',*,*,#446,.F.);
#449=ORIENTED_EDGE('',*,*,#448,.F.);
#450=ORIENTED_EDGE('',*,*,#408,.F.);
#451=ORIENTED_EDGE('',*,*,#397,.F.);
#452=EDGE_LOOP('',(#421,#422,#423,#425,#427,#429,#431,#433,#435,#437,#439,#441,
#443,#445,#447,#449,#450,#451));
#453=FACE_OUTER_BOUND('',#452,.F.);
#454=ADVANCED_FACE('',(#453),#420,.T.);
#455=CARTESIAN_POINT('',(1.85E0,-1.85E0,-6.5E0));
#456=DIRECTION('',(0.E0,0.E0,-1.E0));
#457=DIRECTION('',(-1.E0,0.E0,0.E0));
#458=AXIS2_PLACEMENT_3D('',#455,#456,#457);
#459=PLANE('',#458);
#460=ORIENTED_EDGE('',*,*,#340,.F.);
#462=ORIENTED_EDGE('',*,*,#461,.T.);
#463=ORIENTED_EDGE('',*,*,#424,.T.);
#464=ORIENTED_EDGE('',*,*,#353,.F.);
#465=EDGE_LOOP('',(#460,#462,#463,#464));
#466=FACE_OUTER_BOUND('',#465,.F.);
#467=ADVANCED_FACE('',(#466),#459,.T.);
#468=CARTESIAN_POINT('',(1.85E0,-1.85E0,-2.E0));
#469=DIRECTION('',(1.E0,0.E0,0.E0));
#470=DIRECTION('',(0.E0,0.E0,-1.E0));
#471=AXIS2_PLACEMENT_3D('',#468,#469,#470);
#472=PLANE('',#471);
#474=ORIENTED_EDGE('',*,*,#473,.T.);
#475=ORIENTED_EDGE('',*,*,#426,.T.);
#476=ORIENTED_EDGE('',*,*,#461,.F.);
#477=ORIENTED_EDGE('',*,*,#338,.F.);
#478=EDGE_LOOP('',(#474,#475,#476,#477));
#479=FACE_OUTER_BOUND('',#478,.F.);
#480=ADVANCED_FACE('',(#479),#472,.T.);
#481=CARTESIAN_POINT('',(2.15E0,-1.85133704E0,-2.3E0));
#482=DIRECTION('',(0.E0,1.E0,0.E0));
#483=DIRECTION('',(-1.E0,0.E0,0.E0));
#484=AXIS2_PLACEMENT_3D('',#481,#482,#483);
#485=CYLINDRICAL_SURFACE('',#484,3.E-1);
#486=ORIENTED_EDGE('',*,*,#473,.F.);
#487=ORIENTED_EDGE('',*,*,#336,.T.);
#489=ORIENTED_EDGE('',*,*,#488,.T.);
#490=ORIENTED_EDGE('',*,*,#428,.T.);
#491=EDGE_LOOP('',(#486,#487,#489,#490));
#492=FACE_OUTER_BOUND('',#491,.F.);
#493=ADVANCED_FACE('',(#492),#485,.F.);
#494=CARTESIAN_POINT('',(4.45E0,-1.85E0,-2.E0));
#495=DIRECTION('',(0.E0,0.E0,-1.E0));
#496=DIRECTION('',(-1.E0,0.E0,0.E0));
#497=AXIS2_PLACEMENT_3D('',#494,#495,#496);
#498=PLANE('',#497);
#500=ORIENTED_EDGE('',*,*,#499,.T.);
#501=ORIENTED_EDGE('',*,*,#430,.T.);
#502=ORIENTED_EDGE('',*,*,#488,.F.);
#503=ORIENTED_EDGE('',*,*,#334,.F.);
#504=EDGE_LOOP('',(#500,#501,#502,#503));
#505=FACE_OUTER_BOUND('',#504,.F.);
#506=ADVANCED_FACE('',(#505),#498,.T.);
#507=CARTESIAN_POINT('',(4.15E0,-1.85133704E0,-2.3E0));
#508=DIRECTION('',(0.E0,1.E0,0.E0));
#509=DIRECTION('',(0.E0,0.E0,1.E0));
#510=AXIS2_PLACEMENT_3D('',#507,#508,#509);
#511=CYLINDRICAL_SURFACE('',#510,3.E-1);
#512=ORIENTED_EDGE('',*,*,#499,.F.);
#513=ORIENTED_EDGE('',*,*,#332,.T.);
#515=ORIENTED_EDGE('',*,*,#514,.T.);
#516=ORIENTED_EDGE('',*,*,#432,.T.);
#517=EDGE_LOOP('',(#512,#513,#515,#516));
#518=FACE_OUTER_BOUND('',#517,.F.);
#519=ADVANCED_FACE('',(#518),#511,.F.);
#520=CARTESIAN_POINT('',(4.45E0,-1.85E0,-6.5E0));
#521=DIRECTION('',(-1.E0,0.E0,0.E0));
#522=DIRECTION('',(0.E0,0.E0,1.E0));
#523=AXIS2_PLACEMENT_3D('',#520,#521,#522);
#524=PLANE('',#523);
#525=ORIENTED_EDGE('',*,*,#514,.F.);
#526=ORIENTED_EDGE('',*,*,#330,.F.);
#528=ORIENTED_EDGE('',*,*,#527,.T.);
#529=ORIENTED_EDGE('',*,*,#434,.T.);
#530=EDGE_LOOP('',(#525,#526,#528,#529));
#531=FACE_OUTER_BOUND('',#530,.F.);
#532=ADVANCED_FACE('',(#531),#524,.T.);
#533=CARTESIAN_POINT('',(6.3E0,-1.85E0,-6.5E0));
#534=DIRECTION('',(0.E0,0.E0,-1.E0));
#535=DIRECTION('',(-1.E0,0.E0,0.E0));
#536=AXIS2_PLACEMENT_3D('',#533,#534,#535);
#537=PLANE('',#536);
#538=ORIENTED_EDGE('',*,*,#328,.F.);
#540=ORIENTED_EDGE('',*,*,#539,.T.);
#541=ORIENTED_EDGE('',*,*,#436,.T.);
#542=ORIENTED_EDGE('',*,*,#527,.F.);
#543=EDGE_LOOP('',(#538,#540,#541,#542));
#544=FACE_OUTER_BOUND('',#543,.F.);
#545=ADVANCED_FACE('',(#544),#537,.T.);
#546=CARTESIAN_POINT('',(6.3E0,-1.85E0,0.E0));
#547=DIRECTION('',(1.E0,0.E0,0.E0));
#548=DIRECTION('',(0.E0,0.E0,-1.E0));
#549=AXIS2_PLACEMENT_3D('',#546,#547,#548);
#550=PLANE('',#549);
#552=ORIENTED_EDGE('',*,*,#551,.F.);
#553=ORIENTED_EDGE('',*,*,#438,.T.);
#554=ORIENTED_EDGE('',*,*,#539,.F.);
#555=ORIENTED_EDGE('',*,*,#326,.F.);
#556=EDGE_LOOP('',(#552,#553,#554,#555));
#557=FACE_OUTER_BOUND('',#556,.F.);
#558=ADVANCED_FACE('',(#557),#550,.T.);
#559=CARTESIAN_POINT('',(5.3E0,1.8515648E0,-1.E0));
#560=DIRECTION('',(0.E0,-1.E0,0.E0));
#561=DIRECTION('',(1.E0,0.E0,0.E0));
#562=AXIS2_PLACEMENT_3D('',#559,#560,#561);
#563=CYLINDRICAL_SURFACE('',#562,1.E0);
#565=ORIENTED_EDGE('',*,*,#564,.F.);
#566=ORIENTED_EDGE('',*,*,#440,.T.);
#567=ORIENTED_EDGE('',*,*,#551,.T.);
#568=ORIENTED_EDGE('',*,*,#324,.T.);
#569=EDGE_LOOP('',(#565,#566,#567,#568));
#570=FACE_OUTER_BOUND('',#569,.F.);
#571=ADVANCED_FACE('',(#570),#563,.T.);
#572=CARTESIAN_POINT('',(-6.3E0,-1.85E0,0.E0));
#573=DIRECTION('',(0.E0,0.E0,1.E0));
#574=DIRECTION('',(1.E0,0.E0,0.E0));
#575=AXIS2_PLACEMENT_3D('',#572,#573,#574);
#576=PLANE('',#575);
#577=ORIENTED_EDGE('',*,*,#564,.T.);
#578=ORIENTED_EDGE('',*,*,#322,.F.);
#580=ORIENTED_EDGE('',*,*,#579,.F.);
#581=ORIENTED_EDGE('',*,*,#442,.T.);
#582=EDGE_LOOP('',(#577,#578,#580,#581));
#583=FACE_OUTER_BOUND('',#582,.F.);
#584=ADVANCED_FACE('',(#583),#576,.T.);
#585=CARTESIAN_POINT('',(-5.3E0,1.8515648E0,-1.E0));
#586=DIRECTION('',(0.E0,-1.E0,0.E0));
#587=DIRECTION('',(0.E0,0.E0,1.E0));
#588=AXIS2_PLACEMENT_3D('',#585,#586,#587);
#589=CYLINDRICAL_SURFACE('',#588,1.E0);
#591=ORIENTED_EDGE('',*,*,#590,.F.);
#592=ORIENTED_EDGE('',*,*,#444,.T.);
#593=ORIENTED_EDGE('',*,*,#579,.T.);
#594=ORIENTED_EDGE('',*,*,#320,.T.);
#595=EDGE_LOOP('',(#591,#592,#593,#594));
#596=FACE_OUTER_BOUND('',#595,.F.);
#597=ADVANCED_FACE('',(#596),#589,.T.);
#598=CARTESIAN_POINT('',(-6.3E0,-1.85E0,-6.5E0));
#599=DIRECTION('',(-1.E0,0.E0,0.E0));
#600=DIRECTION('',(0.E0,0.E0,1.E0));
#601=AXIS2_PLACEMENT_3D('',#598,#599,#600);
#602=PLANE('',#601);
#603=ORIENTED_EDGE('',*,*,#590,.T.);
#604=ORIENTED_EDGE('',*,*,#318,.F.);
#606=ORIENTED_EDGE('',*,*,#605,.T.);
#607=ORIENTED_EDGE('',*,*,#446,.T.);
#608=EDGE_LOOP('',(#603,#604,#606,#607));
#609=FACE_OUTER_BOUND('',#608,.F.);
#610=ADVANCED_FACE('',(#609),#602,.T.);
#611=CARTESIAN_POINT('',(-4.45E0,-1.85E0,-6.5E0));
#612=DIRECTION('',(0.E0,0.E0,-1.E0));
#613=DIRECTION('',(-1.E0,0.E0,0.E0));
#614=AXIS2_PLACEMENT_3D('',#611,#612,#613);
#615=PLANE('',#614);
#616=ORIENTED_EDGE('',*,*,#316,.F.);
#617=ORIENTED_EDGE('',*,*,#410,.T.);
#618=ORIENTED_EDGE('',*,*,#448,.T.);
#619=ORIENTED_EDGE('',*,*,#605,.F.);
#620=EDGE_LOOP('',(#616,#617,#618,#619));
#621=FACE_OUTER_BOUND('',#620,.F.);
#622=ADVANCED_FACE('',(#621),#615,.T.);
#623=CLOSED_SHELL('',(#344,#359,#373,#387,#401,#415,#454,#467,#480,#493,#506,
#519,#532,#545,#558,#571,#584,#597,#610,#622));
#624=MANIFOLD_SOLID_BREP('',#623);
#626=DIMENSIONAL_EXPONENTS(0.E0,0.E0,0.E0,0.E0,0.E0,0.E0,0.E0);
#628=PLANE_ANGLE_MEASURE_WITH_UNIT(PLANE_ANGLE_MEASURE(1.745329251994E-2),#627);
#629=(CONVERSION_BASED_UNIT('DEGREE',#628)NAMED_UNIT(*)PLANE_ANGLE_UNIT());
#631=UNCERTAINTY_MEASURE_WITH_UNIT(LENGTH_MEASURE(1.E-4),#625,'closure',
'Maximum model space distance between geometric entities at asserted connectivities');
#632=(GEOMETRIC_REPRESENTATION_CONTEXT(3)GLOBAL_UNCERTAINTY_ASSIGNED_CONTEXT((
#631))GLOBAL_UNIT_ASSIGNED_CONTEXT((#625,#629,#630))REPRESENTATION_CONTEXT
('ID1','3'));
#634=APPLICATION_CONTEXT(
'CONFIGURATION CONTROLLED 3D DESIGNS OF MECHANICAL PARTS AND ASSEMBLIES');
#635=APPLICATION_PROTOCOL_DEFINITION('international standard',
'config_control_design',1994,#634);
#636=DESIGN_CONTEXT('',#634,'design');
#637=MECHANICAL_CONTEXT('',#634,'mechanical');
#638=PRODUCT('C61036-A0029-C026-01-7606','C61036-A0029-C026-01-7606',
'NOT SPECIFIED',(#637));
#639=PRODUCT_DEFINITION_FORMATION_WITH_SPECIFIED_SOURCE('16','LAST_VERSION',
#638,.MADE.);
#643=PRODUCT_CATEGORY('part','');
#644=PRODUCT_RELATED_PRODUCT_CATEGORY('detail','',(#638));
#645=PRODUCT_CATEGORY_RELATIONSHIP('','',#643,#644);
#646=SECURITY_CLASSIFICATION_LEVEL('unclassified');
#647=SECURITY_CLASSIFICATION('','',#646);
#648=CC_DESIGN_SECURITY_CLASSIFICATION(#647,(#639));
#649=APPROVAL_STATUS('approved');
#650=APPROVAL(#649,'');
#651=CC_DESIGN_APPROVAL(#650,(#647,#639,#640));
#652=CALENDAR_DATE(118,10,5);
#653=COORDINATED_UNIVERSAL_TIME_OFFSET(2,0,.AHEAD.);
#654=LOCAL_TIME(11,5,3.E0,#653);
#655=DATE_AND_TIME(#652,#654);
#656=APPROVAL_DATE_TIME(#655,#650);
#657=DATE_TIME_ROLE('creation_date');
#658=CC_DESIGN_DATE_AND_TIME_ASSIGNMENT(#655,#657,(#640));
#659=DATE_TIME_ROLE('classification_date');
#660=CC_DESIGN_DATE_AND_TIME_ASSIGNMENT(#655,#659,(#647));
#661=PERSON('UNSPECIFIED','UNSPECIFIED',$,$,$,$);
#662=ORGANIZATION('UNSPECIFIED','UNSPECIFIED','UNSPECIFIED');
#663=PERSON_AND_ORGANIZATION(#661,#662);
#664=APPROVAL_ROLE('approver');
#665=APPROVAL_PERSON_ORGANIZATION(#663,#650,#664);
#666=PERSON_AND_ORGANIZATION_ROLE('creator');
#667=CC_DESIGN_PERSON_AND_ORGANIZATION_ASSIGNMENT(#663,#666,(#639,#640));
#668=PERSON_AND_ORGANIZATION_ROLE('design_supplier');
#669=CC_DESIGN_PERSON_AND_ORGANIZATION_ASSIGNMENT(#663,#668,(#639));
#670=PERSON_AND_ORGANIZATION_ROLE('classification_officer');
#671=CC_DESIGN_PERSON_AND_ORGANIZATION_ASSIGNMENT(#663,#670,(#647));
#672=PERSON_AND_ORGANIZATION_ROLE('design_owner');
#673=CC_DESIGN_PERSON_AND_ORGANIZATION_ASSIGNMENT(#663,#672,(#638));
#61=CIRCLE('',#60,3.E-1);
#66=CIRCLE('',#65,3.E-1);
#79=CIRCLE('',#78,3.E-1);
#84=CIRCLE('',#83,3.E-1);
#149=CIRCLE('',#148,3.E-1);
#154=CIRCLE('',#153,3.E-1);
#167=CIRCLE('',#166,3.E-1);
#172=CIRCLE('',#171,3.E-1);
#193=CIRCLE('',#192,1.E0);
#202=CIRCLE('',#201,1.E0);
#211=CIRCLE('',#210,1.E0);
#220=CIRCLE('',#219,1.E0);
#306=EDGE_CURVE('',#236,#283,#4,.T.);
#308=EDGE_CURVE('',#279,#283,#61,.T.);
#310=EDGE_CURVE('',#279,#275,#8,.T.);
#312=EDGE_CURVE('',#271,#275,#79,.T.);
#314=EDGE_CURVE('',#271,#259,#12,.T.);
#316=EDGE_CURVE('',#259,#260,#16,.T.);
#318=EDGE_CURVE('',#260,#268,#20,.T.);
#320=EDGE_CURVE('',#254,#268,#220,.T.);
#322=EDGE_CURVE('',#254,#248,#24,.T.);
#324=EDGE_CURVE('',#252,#248,#202,.T.);
#326=EDGE_CURVE('',#252,#231,#28,.T.);
#328=EDGE_CURVE('',#231,#232,#32,.T.);
#330=EDGE_CURVE('',#232,#291,#36,.T.);
#332=EDGE_CURVE('',#287,#291,#167,.T.);
#334=EDGE_CURVE('',#287,#299,#40,.T.);
#336=EDGE_CURVE('',#295,#299,#149,.T.);
#338=EDGE_CURVE('',#295,#235,#44,.T.);
#340=EDGE_CURVE('',#235,#236,#48,.T.);
#350=EDGE_CURVE('',#283,#284,#52,.T.);
#353=EDGE_CURVE('',#236,#244,#56,.T.);
#355=EDGE_CURVE('',#244,#284,#96,.T.);
#365=EDGE_CURVE('',#279,#280,#74,.T.);
#369=EDGE_CURVE('',#284,#280,#66,.T.);
#379=EDGE_CURVE('',#275,#276,#70,.T.);
#383=EDGE_CURVE('',#280,#276,#92,.T.);
#393=EDGE_CURVE('',#271,#272,#88,.T.);
#397=EDGE_CURVE('',#276,#272,#84,.T.);
#408=EDGE_CURVE('',#272,#263,#136,.T.);
#410=EDGE_CURVE('',#259,#263,#228,.T.);
#424=EDGE_CURVE('',#243,#244,#100,.T.);
#426=EDGE_CURVE('',#296,#243,#104,.T.);
#428=EDGE_CURVE('',#300,#296,#154,.T.);
#430=EDGE_CURVE('',#288,#300,#108,.T.);
#432=EDGE_CURVE('',#292,#288,#172,.T.);
#434=EDGE_CURVE('',#240,#292,#112,.T.);
#436=EDGE_CURVE('',#239,#240,#116,.T.);
#438=EDGE_CURVE('',#250,#239,#120,.T.);
#440=EDGE_CURVE('',#247,#250,#193,.T.);
#442=EDGE_CURVE('',#256,#247,#124,.T.);
#444=EDGE_CURVE('',#267,#256,#211,.T.);
#446=EDGE_CURVE('',#264,#267,#128,.T.);
#448=EDGE_CURVE('',#263,#264,#132,.T.);
#461=EDGE_CURVE('',#235,#243,#140,.T.);
#473=EDGE_CURVE('',#295,#296,#144,.T.);
#488=EDGE_CURVE('',#299,#300,#162,.T.);
#499=EDGE_CURVE('',#287,#288,#158,.T.);
#514=EDGE_CURVE('',#291,#292,#176,.T.);
#527=EDGE_CURVE('',#232,#240,#180,.T.);
#539=EDGE_CURVE('',#231,#239,#184,.T.);
#551=EDGE_CURVE('',#250,#252,#197,.T.);
#564=EDGE_CURVE('',#247,#248,#188,.T.);
#579=EDGE_CURVE('',#256,#254,#215,.T.);
#590=EDGE_CURVE('',#267,#268,#206,.T.);
#605=EDGE_CURVE('',#260,#264,#224,.T.);
#625=(LENGTH_UNIT()NAMED_UNIT(*)SI_UNIT(.MILLI.,.METRE.));
#627=(NAMED_UNIT(*)PLANE_ANGLE_UNIT()SI_UNIT($,.RADIAN.));
#630=(NAMED_UNIT(*)SI_UNIT($,.STERADIAN.)SOLID_ANGLE_UNIT());
#633=ADVANCED_BREP_SHAPE_REPRESENTATION('',(#624),#632);
#640=PRODUCT_DEFINITION('design','',#639,#636);
#641=PRODUCT_DEFINITION_SHAPE('','SHAPE FOR C61036-A0029-C026-01-7606.',#640);
#642=SHAPE_DEFINITION_REPRESENTATION(#641,#633);
ENDSEC;
END-ISO-10303-21;
