ISO-10303-21;
HEADER;
FILE_DESCRIPTION((''),'2;1');
FILE_NAME('C-2488590-1','2024-07-08T06:23:57',('workeradm'),(
'TE Connectivity Ltd.'),'CREO PARAMETRIC BY PTC INC, 2021072',
'CREO PARAMETRIC BY PTC INC, 2021072','');
FILE_SCHEMA(('AUTOMOTIVE_DESIGN { 1 0 10303 214 1 1 1 1 }'));
ENDSEC;
DATA;
#2=CARTESIAN_POINT('',(0.E0,0.E0,0.E0));
#3=DIRECTION('',(0.E0,0.E0,-1.E0));
#4=DIRECTION('',(1.E0,0.E0,0.E0));
#5=AXIS2_PLACEMENT_3D('',#2,#3,#4);
#7=CARTESIAN_POINT('',(0.E0,0.E0,0.E0));
#8=DIRECTION('',(0.E0,0.E0,-1.E0));
#9=DIRECTION('',(-1.E0,0.E0,0.E0));
#10=AXIS2_PLACEMENT_3D('',#7,#8,#9);
#12=CARTESIAN_POINT('',(-3.0165E1,3.0165E1,0.E0));
#13=DIRECTION('',(0.E0,0.E0,-1.E0));
#14=DIRECTION('',(1.E0,0.E0,0.E0));
#15=AXIS2_PLACEMENT_3D('',#12,#13,#14);
#17=CARTESIAN_POINT('',(-3.0165E1,3.0165E1,0.E0));
#18=DIRECTION('',(0.E0,0.E0,-1.E0));
#19=DIRECTION('',(-1.E0,0.E0,0.E0));
#20=AXIS2_PLACEMENT_3D('',#17,#18,#19);
#22=CARTESIAN_POINT('',(3.0165E1,3.0165E1,0.E0));
#23=DIRECTION('',(0.E0,0.E0,-1.E0));
#24=DIRECTION('',(1.E0,0.E0,0.E0));
#25=AXIS2_PLACEMENT_3D('',#22,#23,#24);
#27=CARTESIAN_POINT('',(3.0165E1,3.0165E1,0.E0));
#28=DIRECTION('',(0.E0,0.E0,-1.E0));
#29=DIRECTION('',(-1.E0,0.E0,0.E0));
#30=AXIS2_PLACEMENT_3D('',#27,#28,#29);
#32=CARTESIAN_POINT('',(3.0165E1,-3.0165E1,0.E0));
#33=DIRECTION('',(0.E0,0.E0,-1.E0));
#34=DIRECTION('',(1.E0,0.E0,0.E0));
#35=AXIS2_PLACEMENT_3D('',#32,#33,#34);
#37=CARTESIAN_POINT('',(3.0165E1,-3.0165E1,0.E0));
#38=DIRECTION('',(0.E0,0.E0,-1.E0));
#39=DIRECTION('',(-1.E0,0.E0,0.E0));
#40=AXIS2_PLACEMENT_3D('',#37,#38,#39);
#42=CARTESIAN_POINT('',(-3.0165E1,-3.0165E1,0.E0));
#43=DIRECTION('',(0.E0,0.E0,-1.E0));
#44=DIRECTION('',(1.E0,0.E0,0.E0));
#45=AXIS2_PLACEMENT_3D('',#42,#43,#44);
#47=CARTESIAN_POINT('',(-3.0165E1,-3.0165E1,0.E0));
#48=DIRECTION('',(0.E0,0.E0,-1.E0));
#49=DIRECTION('',(-1.E0,0.E0,0.E0));
#50=AXIS2_PLACEMENT_3D('',#47,#48,#49);
#52=DIRECTION('',(-1.E0,0.E0,0.E0));
#53=VECTOR('',#52,6.72E1);
#54=CARTESIAN_POINT('',(3.36E1,3.81E1,0.E0));
#55=LINE('',#54,#53);
#56=CARTESIAN_POINT('',(3.36E1,3.36E1,0.E0));
#57=DIRECTION('',(0.E0,0.E0,1.E0));
#58=DIRECTION('',(1.E0,0.E0,0.E0));
#59=AXIS2_PLACEMENT_3D('',#56,#57,#58);
#61=DIRECTION('',(0.E0,1.E0,0.E0));
#62=VECTOR('',#61,6.72E1);
#63=CARTESIAN_POINT('',(3.81E1,-3.36E1,0.E0));
#64=LINE('',#63,#62);
#65=CARTESIAN_POINT('',(3.36E1,-3.36E1,0.E0));
#66=DIRECTION('',(0.E0,0.E0,1.E0));
#67=DIRECTION('',(0.E0,-1.E0,0.E0));
#68=AXIS2_PLACEMENT_3D('',#65,#66,#67);
#70=DIRECTION('',(1.E0,0.E0,0.E0));
#71=VECTOR('',#70,6.72E1);
#72=CARTESIAN_POINT('',(-3.36E1,-3.81E1,0.E0));
#73=LINE('',#72,#71);
#74=CARTESIAN_POINT('',(-3.36E1,-3.36E1,0.E0));
#75=DIRECTION('',(0.E0,0.E0,1.E0));
#76=DIRECTION('',(-1.E0,0.E0,0.E0));
#77=AXIS2_PLACEMENT_3D('',#74,#75,#76);
#79=DIRECTION('',(0.E0,-1.E0,0.E0));
#80=VECTOR('',#79,6.72E1);
#81=CARTESIAN_POINT('',(-3.81E1,3.36E1,0.E0));
#82=LINE('',#81,#80);
#83=CARTESIAN_POINT('',(-3.36E1,3.36E1,0.E0));
#84=DIRECTION('',(0.E0,0.E0,1.E0));
#85=DIRECTION('',(0.E0,1.E0,0.E0));
#86=AXIS2_PLACEMENT_3D('',#83,#84,#85);
#88=DIRECTION('',(0.E0,0.E0,-1.E0));
#89=VECTOR('',#88,8.E-1);
#90=CARTESIAN_POINT('',(3.532E1,0.E0,0.E0));
#91=LINE('',#90,#89);
#92=DIRECTION('',(0.E0,0.E0,-1.E0));
#93=VECTOR('',#92,8.E-1);
#94=CARTESIAN_POINT('',(-3.532E1,0.E0,0.E0));
#95=LINE('',#94,#93);
#96=CARTESIAN_POINT('',(0.E0,0.E0,-8.E-1));
#97=DIRECTION('',(0.E0,0.E0,-1.E0));
#98=DIRECTION('',(1.E0,0.E0,0.E0));
#99=AXIS2_PLACEMENT_3D('',#96,#97,#98);
#101=CARTESIAN_POINT('',(0.E0,0.E0,-8.E-1));
#102=DIRECTION('',(0.E0,0.E0,-1.E0));
#103=DIRECTION('',(-1.E0,0.E0,0.E0));
#104=AXIS2_PLACEMENT_3D('',#101,#102,#103);
#106=CARTESIAN_POINT('',(-3.0165E1,3.0165E1,-8.E-1));
#107=DIRECTION('',(0.E0,0.E0,-1.E0));
#108=DIRECTION('',(1.E0,0.E0,0.E0));
#109=AXIS2_PLACEMENT_3D('',#106,#107,#108);
#111=CARTESIAN_POINT('',(-3.0165E1,3.0165E1,-8.E-1));
#112=DIRECTION('',(0.E0,0.E0,-1.E0));
#113=DIRECTION('',(-1.E0,0.E0,0.E0));
#114=AXIS2_PLACEMENT_3D('',#111,#112,#113);
#116=CARTESIAN_POINT('',(3.0165E1,3.0165E1,-8.E-1));
#117=DIRECTION('',(0.E0,0.E0,-1.E0));
#118=DIRECTION('',(1.E0,0.E0,0.E0));
#119=AXIS2_PLACEMENT_3D('',#116,#117,#118);
#121=CARTESIAN_POINT('',(3.0165E1,3.0165E1,-8.E-1));
#122=DIRECTION('',(0.E0,0.E0,-1.E0));
#123=DIRECTION('',(-1.E0,0.E0,0.E0));
#124=AXIS2_PLACEMENT_3D('',#121,#122,#123);
#126=CARTESIAN_POINT('',(3.0165E1,-3.0165E1,-8.E-1));
#127=DIRECTION('',(0.E0,0.E0,-1.E0));
#128=DIRECTION('',(1.E0,0.E0,0.E0));
#129=AXIS2_PLACEMENT_3D('',#126,#127,#128);
#131=CARTESIAN_POINT('',(3.0165E1,-3.0165E1,-8.E-1));
#132=DIRECTION('',(0.E0,0.E0,-1.E0));
#133=DIRECTION('',(-1.E0,0.E0,0.E0));
#134=AXIS2_PLACEMENT_3D('',#131,#132,#133);
#136=CARTESIAN_POINT('',(-3.0165E1,-3.0165E1,-8.E-1));
#137=DIRECTION('',(0.E0,0.E0,-1.E0));
#138=DIRECTION('',(1.E0,0.E0,0.E0));
#139=AXIS2_PLACEMENT_3D('',#136,#137,#138);
#141=CARTESIAN_POINT('',(-3.0165E1,-3.0165E1,-8.E-1));
#142=DIRECTION('',(0.E0,0.E0,-1.E0));
#143=DIRECTION('',(-1.E0,0.E0,0.E0));
#144=AXIS2_PLACEMENT_3D('',#141,#142,#143);
#146=DIRECTION('',(-1.E0,0.E0,0.E0));
#147=VECTOR('',#146,6.72E1);
#148=CARTESIAN_POINT('',(3.36E1,3.81E1,-8.E-1));
#149=LINE('',#148,#147);
#150=CARTESIAN_POINT('',(-3.36E1,3.36E1,-8.E-1));
#151=DIRECTION('',(0.E0,0.E0,1.E0));
#152=DIRECTION('',(0.E0,1.E0,0.E0));
#153=AXIS2_PLACEMENT_3D('',#150,#151,#152);
#155=DIRECTION('',(0.E0,-1.E0,0.E0));
#156=VECTOR('',#155,6.72E1);
#157=CARTESIAN_POINT('',(-3.81E1,3.36E1,-8.E-1));
#158=LINE('',#157,#156);
#159=CARTESIAN_POINT('',(-3.36E1,-3.36E1,-8.E-1));
#160=DIRECTION('',(0.E0,0.E0,1.E0));
#161=DIRECTION('',(-1.E0,0.E0,0.E0));
#162=AXIS2_PLACEMENT_3D('',#159,#160,#161);
#164=DIRECTION('',(1.E0,0.E0,0.E0));
#165=VECTOR('',#164,6.72E1);
#166=CARTESIAN_POINT('',(-3.36E1,-3.81E1,-8.E-1));
#167=LINE('',#166,#165);
#168=CARTESIAN_POINT('',(3.36E1,-3.36E1,-8.E-1));
#169=DIRECTION('',(0.E0,0.E0,1.E0));
#170=DIRECTION('',(0.E0,-1.E0,0.E0));
#171=AXIS2_PLACEMENT_3D('',#168,#169,#170);
#173=DIRECTION('',(0.E0,1.E0,0.E0));
#174=VECTOR('',#173,6.72E1);
#175=CARTESIAN_POINT('',(3.81E1,-3.36E1,-8.E-1));
#176=LINE('',#175,#174);
#177=CARTESIAN_POINT('',(3.36E1,3.36E1,-8.E-1));
#178=DIRECTION('',(0.E0,0.E0,1.E0));
#179=DIRECTION('',(1.E0,0.E0,0.E0));
#180=AXIS2_PLACEMENT_3D('',#177,#178,#179);
#182=DIRECTION('',(0.E0,0.E0,-1.E0));
#183=VECTOR('',#182,8.E-1);
#184=CARTESIAN_POINT('',(-2.7165E1,3.0165E1,0.E0));
#185=LINE('',#184,#183);
#186=DIRECTION('',(0.E0,0.E0,-1.E0));
#187=VECTOR('',#186,8.E-1);
#188=CARTESIAN_POINT('',(-3.3165E1,3.0165E1,0.E0));
#189=LINE('',#188,#187);
#190=DIRECTION('',(0.E0,0.E0,-1.E0));
#191=VECTOR('',#190,8.E-1);
#192=CARTESIAN_POINT('',(3.3165E1,3.0165E1,0.E0));
#193=LINE('',#192,#191);
#194=DIRECTION('',(0.E0,0.E0,-1.E0));
#195=VECTOR('',#194,8.E-1);
#196=CARTESIAN_POINT('',(2.7165E1,3.0165E1,0.E0));
#197=LINE('',#196,#195);
#198=DIRECTION('',(0.E0,0.E0,-1.E0));
#199=VECTOR('',#198,8.E-1);
#200=CARTESIAN_POINT('',(3.3165E1,-3.0165E1,0.E0));
#201=LINE('',#200,#199);
#202=DIRECTION('',(0.E0,0.E0,-1.E0));
#203=VECTOR('',#202,8.E-1);
#204=CARTESIAN_POINT('',(2.7165E1,-3.0165E1,0.E0));
#205=LINE('',#204,#203);
#206=DIRECTION('',(0.E0,0.E0,-1.E0));
#207=VECTOR('',#206,8.E-1);
#208=CARTESIAN_POINT('',(-2.7165E1,-3.0165E1,0.E0));
#209=LINE('',#208,#207);
#210=DIRECTION('',(0.E0,0.E0,-1.E0));
#211=VECTOR('',#210,8.E-1);
#212=CARTESIAN_POINT('',(-3.3165E1,-3.0165E1,0.E0));
#213=LINE('',#212,#211);
#214=DIRECTION('',(0.E0,0.E0,-1.E0));
#215=VECTOR('',#214,8.E-1);
#216=CARTESIAN_POINT('',(3.36E1,3.81E1,0.E0));
#217=LINE('',#216,#215);
#218=DIRECTION('',(0.E0,0.E0,-1.E0));
#219=VECTOR('',#218,8.E-1);
#220=CARTESIAN_POINT('',(-3.36E1,3.81E1,0.E0));
#221=LINE('',#220,#219);
#222=DIRECTION('',(0.E0,0.E0,-1.E0));
#223=VECTOR('',#222,8.E-1);
#224=CARTESIAN_POINT('',(-3.81E1,3.36E1,0.E0));
#225=LINE('',#224,#223);
#226=DIRECTION('',(0.E0,0.E0,-1.E0));
#227=VECTOR('',#226,8.E-1);
#228=CARTESIAN_POINT('',(-3.81E1,-3.36E1,0.E0));
#229=LINE('',#228,#227);
#230=DIRECTION('',(0.E0,0.E0,-1.E0));
#231=VECTOR('',#230,8.E-1);
#232=CARTESIAN_POINT('',(-3.36E1,-3.81E1,0.E0));
#233=LINE('',#232,#231);
#234=DIRECTION('',(0.E0,0.E0,-1.E0));
#235=VECTOR('',#234,8.E-1);
#236=CARTESIAN_POINT('',(3.36E1,-3.81E1,0.E0));
#237=LINE('',#236,#235);
#238=DIRECTION('',(0.E0,0.E0,-1.E0));
#239=VECTOR('',#238,8.E-1);
#240=CARTESIAN_POINT('',(3.81E1,-3.36E1,0.E0));
#241=LINE('',#240,#239);
#242=DIRECTION('',(0.E0,0.E0,-1.E0));
#243=VECTOR('',#242,8.E-1);
#244=CARTESIAN_POINT('',(3.81E1,3.36E1,0.E0));
#245=LINE('',#244,#243);
#246=CARTESIAN_POINT('',(3.532E1,0.E0,0.E0));
#247=CARTESIAN_POINT('',(-3.532E1,0.E0,0.E0));
#248=VERTEX_POINT('',#246);
#249=VERTEX_POINT('',#247);
#250=CARTESIAN_POINT('',(-2.7165E1,3.0165E1,0.E0));
#251=CARTESIAN_POINT('',(-3.3165E1,3.0165E1,0.E0));
#252=VERTEX_POINT('',#250);
#253=VERTEX_POINT('',#251);
#254=CARTESIAN_POINT('',(3.3165E1,3.0165E1,0.E0));
#255=CARTESIAN_POINT('',(2.7165E1,3.0165E1,0.E0));
#256=VERTEX_POINT('',#254);
#257=VERTEX_POINT('',#255);
#258=CARTESIAN_POINT('',(3.3165E1,-3.0165E1,0.E0));
#259=CARTESIAN_POINT('',(2.7165E1,-3.0165E1,0.E0));
#260=VERTEX_POINT('',#258);
#261=VERTEX_POINT('',#259);
#262=CARTESIAN_POINT('',(-2.7165E1,-3.0165E1,0.E0));
#263=CARTESIAN_POINT('',(-3.3165E1,-3.0165E1,0.E0));
#264=VERTEX_POINT('',#262);
#265=VERTEX_POINT('',#263);
#266=CARTESIAN_POINT('',(3.36E1,3.81E1,0.E0));
#267=CARTESIAN_POINT('',(-3.36E1,3.81E1,0.E0));
#268=VERTEX_POINT('',#266);
#269=VERTEX_POINT('',#267);
#270=CARTESIAN_POINT('',(-3.81E1,3.36E1,0.E0));
#271=VERTEX_POINT('',#270);
#272=CARTESIAN_POINT('',(-3.81E1,-3.36E1,0.E0));
#273=VERTEX_POINT('',#272);
#274=CARTESIAN_POINT('',(-3.36E1,-3.81E1,0.E0));
#275=VERTEX_POINT('',#274);
#276=CARTESIAN_POINT('',(3.36E1,-3.81E1,0.E0));
#277=VERTEX_POINT('',#276);
#278=CARTESIAN_POINT('',(3.81E1,-3.36E1,0.E0));
#279=VERTEX_POINT('',#278);
#280=CARTESIAN_POINT('',(3.81E1,3.36E1,0.E0));
#281=VERTEX_POINT('',#280);
#282=CARTESIAN_POINT('',(3.532E1,0.E0,-8.E-1));
#283=CARTESIAN_POINT('',(-3.532E1,0.E0,-8.E-1));
#284=VERTEX_POINT('',#282);
#285=VERTEX_POINT('',#283);
#286=CARTESIAN_POINT('',(-2.7165E1,3.0165E1,-8.E-1));
#287=CARTESIAN_POINT('',(-3.3165E1,3.0165E1,-8.E-1));
#288=VERTEX_POINT('',#286);
#289=VERTEX_POINT('',#287);
#290=CARTESIAN_POINT('',(3.3165E1,3.0165E1,-8.E-1));
#291=CARTESIAN_POINT('',(2.7165E1,3.0165E1,-8.E-1));
#292=VERTEX_POINT('',#290);
#293=VERTEX_POINT('',#291);
#294=CARTESIAN_POINT('',(3.3165E1,-3.0165E1,-8.E-1));
#295=CARTESIAN_POINT('',(2.7165E1,-3.0165E1,-8.E-1));
#296=VERTEX_POINT('',#294);
#297=VERTEX_POINT('',#295);
#298=CARTESIAN_POINT('',(-2.7165E1,-3.0165E1,-8.E-1));
#299=CARTESIAN_POINT('',(-3.3165E1,-3.0165E1,-8.E-1));
#300=VERTEX_POINT('',#298);
#301=VERTEX_POINT('',#299);
#302=CARTESIAN_POINT('',(3.36E1,3.81E1,-8.E-1));
#303=CARTESIAN_POINT('',(-3.36E1,3.81E1,-8.E-1));
#304=VERTEX_POINT('',#302);
#305=VERTEX_POINT('',#303);
#306=CARTESIAN_POINT('',(-3.81E1,3.36E1,-8.E-1));
#307=VERTEX_POINT('',#306);
#308=CARTESIAN_POINT('',(-3.81E1,-3.36E1,-8.E-1));
#309=VERTEX_POINT('',#308);
#310=CARTESIAN_POINT('',(-3.36E1,-3.81E1,-8.E-1));
#311=VERTEX_POINT('',#310);
#312=CARTESIAN_POINT('',(3.36E1,-3.81E1,-8.E-1));
#313=VERTEX_POINT('',#312);
#314=CARTESIAN_POINT('',(3.81E1,-3.36E1,-8.E-1));
#315=VERTEX_POINT('',#314);
#316=CARTESIAN_POINT('',(3.81E1,3.36E1,-8.E-1));
#317=VERTEX_POINT('',#316);
#318=CARTESIAN_POINT('',(0.E0,0.E0,0.E0));
#319=DIRECTION('',(0.E0,0.E0,1.E0));
#320=DIRECTION('',(1.E0,0.E0,0.E0));
#321=AXIS2_PLACEMENT_3D('',#318,#319,#320);
#322=PLANE('',#321);
#324=ORIENTED_EDGE('',*,*,#323,.F.);
#326=ORIENTED_EDGE('',*,*,#325,.F.);
#328=ORIENTED_EDGE('',*,*,#327,.F.);
#330=ORIENTED_EDGE('',*,*,#329,.F.);
#332=ORIENTED_EDGE('',*,*,#331,.F.);
#334=ORIENTED_EDGE('',*,*,#333,.F.);
#336=ORIENTED_EDGE('',*,*,#335,.F.);
#338=ORIENTED_EDGE('',*,*,#337,.F.);
#339=EDGE_LOOP('',(#324,#326,#328,#330,#332,#334,#336,#338));
#340=FACE_OUTER_BOUND('',#339,.F.);
#342=ORIENTED_EDGE('',*,*,#341,.F.);
#344=ORIENTED_EDGE('',*,*,#343,.F.);
#345=EDGE_LOOP('',(#342,#344));
#346=FACE_BOUND('',#345,.F.);
#348=ORIENTED_EDGE('',*,*,#347,.F.);
#350=ORIENTED_EDGE('',*,*,#349,.F.);
#351=EDGE_LOOP('',(#348,#350));
#352=FACE_BOUND('',#351,.F.);
#354=ORIENTED_EDGE('',*,*,#353,.F.);
#356=ORIENTED_EDGE('',*,*,#355,.F.);
#357=EDGE_LOOP('',(#354,#356));
#358=FACE_BOUND('',#357,.F.);
#360=ORIENTED_EDGE('',*,*,#359,.F.);
#362=ORIENTED_EDGE('',*,*,#361,.F.);
#363=EDGE_LOOP('',(#360,#362));
#364=FACE_BOUND('',#363,.F.);
#366=ORIENTED_EDGE('',*,*,#365,.F.);
#368=ORIENTED_EDGE('',*,*,#367,.F.);
#369=EDGE_LOOP('',(#366,#368));
#370=FACE_BOUND('',#369,.F.);
#372=CARTESIAN_POINT('',(0.E0,0.E0,0.E0));
#373=DIRECTION('',(0.E0,0.E0,1.E0));
#374=DIRECTION('',(1.E0,0.E0,0.E0));
#375=AXIS2_PLACEMENT_3D('',#372,#373,#374);
#376=CYLINDRICAL_SURFACE('',#375,3.532E1);
#377=ORIENTED_EDGE('',*,*,#365,.T.);
#379=ORIENTED_EDGE('',*,*,#378,.T.);
#381=ORIENTED_EDGE('',*,*,#380,.F.);
#383=ORIENTED_EDGE('',*,*,#382,.F.);
#384=EDGE_LOOP('',(#377,#379,#381,#383));
#385=FACE_OUTER_BOUND('',#384,.F.);
#387=CARTESIAN_POINT('',(0.E0,0.E0,0.E0));
#388=DIRECTION('',(0.E0,0.E0,1.E0));
#389=DIRECTION('',(1.E0,0.E0,0.E0));
#390=AXIS2_PLACEMENT_3D('',#387,#388,#389);
#391=CYLINDRICAL_SURFACE('',#390,3.532E1);
#392=ORIENTED_EDGE('',*,*,#367,.T.);
#393=ORIENTED_EDGE('',*,*,#382,.T.);
#395=ORIENTED_EDGE('',*,*,#394,.F.);
#396=ORIENTED_EDGE('',*,*,#378,.F.);
#397=EDGE_LOOP('',(#392,#393,#395,#396));
#398=FACE_OUTER_BOUND('',#397,.F.);
#400=CARTESIAN_POINT('',(0.E0,0.E0,-8.E-1));
#401=DIRECTION('',(0.E0,0.E0,1.E0));
#402=DIRECTION('',(1.E0,0.E0,0.E0));
#403=AXIS2_PLACEMENT_3D('',#400,#401,#402);
#404=PLANE('',#403);
#406=ORIENTED_EDGE('',*,*,#405,.T.);
#408=ORIENTED_EDGE('',*,*,#407,.T.);
#410=ORIENTED_EDGE('',*,*,#409,.T.);
#412=ORIENTED_EDGE('',*,*,#411,.T.);
#414=ORIENTED_EDGE('',*,*,#413,.T.);
#416=ORIENTED_EDGE('',*,*,#415,.T.);
#418=ORIENTED_EDGE('',*,*,#417,.T.);
#420=ORIENTED_EDGE('',*,*,#419,.T.);
#421=EDGE_LOOP('',(#406,#408,#410,#412,#414,#416,#418,#420));
#422=FACE_OUTER_BOUND('',#421,.F.);
#424=ORIENTED_EDGE('',*,*,#423,.T.);
#426=ORIENTED_EDGE('',*,*,#425,.T.);
#427=EDGE_LOOP('',(#424,#426));
#428=FACE_BOUND('',#427,.F.);
#430=ORIENTED_EDGE('',*,*,#429,.T.);
#432=ORIENTED_EDGE('',*,*,#431,.T.);
#433=EDGE_LOOP('',(#430,#432));
#434=FACE_BOUND('',#433,.F.);
#436=ORIENTED_EDGE('',*,*,#435,.T.);
#438=ORIENTED_EDGE('',*,*,#437,.T.);
#439=EDGE_LOOP('',(#436,#438));
#440=FACE_BOUND('',#439,.F.);
#442=ORIENTED_EDGE('',*,*,#441,.T.);
#444=ORIENTED_EDGE('',*,*,#443,.T.);
#445=EDGE_LOOP('',(#442,#444));
#446=FACE_BOUND('',#445,.F.);
#447=ORIENTED_EDGE('',*,*,#380,.T.);
#448=ORIENTED_EDGE('',*,*,#394,.T.);
#449=EDGE_LOOP('',(#447,#448));
#450=FACE_BOUND('',#449,.F.);
#452=CARTESIAN_POINT('',(-3.0165E1,3.0165E1,0.E0));
#453=DIRECTION('',(0.E0,0.E0,1.E0));
#454=DIRECTION('',(1.E0,0.E0,0.E0));
#455=AXIS2_PLACEMENT_3D('',#452,#453,#454);
#456=CYLINDRICAL_SURFACE('',#455,3.E0);
#457=ORIENTED_EDGE('',*,*,#341,.T.);
#459=ORIENTED_EDGE('',*,*,#458,.T.);
#460=ORIENTED_EDGE('',*,*,#423,.F.);
#462=ORIENTED_EDGE('',*,*,#461,.F.);
#463=EDGE_LOOP('',(#457,#459,#460,#462));
#464=FACE_OUTER_BOUND('',#463,.F.);
#466=CARTESIAN_POINT('',(-3.0165E1,3.0165E1,0.E0));
#467=DIRECTION('',(0.E0,0.E0,1.E0));
#468=DIRECTION('',(1.E0,0.E0,0.E0));
#469=AXIS2_PLACEMENT_3D('',#466,#467,#468);
#470=CYLINDRICAL_SURFACE('',#469,3.E0);
#471=ORIENTED_EDGE('',*,*,#343,.T.);
#472=ORIENTED_EDGE('',*,*,#461,.T.);
#473=ORIENTED_EDGE('',*,*,#425,.F.);
#474=ORIENTED_EDGE('',*,*,#458,.F.);
#475=EDGE_LOOP('',(#471,#472,#473,#474));
#476=FACE_OUTER_BOUND('',#475,.F.);
#478=CARTESIAN_POINT('',(3.0165E1,3.0165E1,0.E0));
#479=DIRECTION('',(0.E0,0.E0,1.E0));
#480=DIRECTION('',(1.E0,0.E0,0.E0));
#481=AXIS2_PLACEMENT_3D('',#478,#479,#480);
#482=CYLINDRICAL_SURFACE('',#481,3.E0);
#483=ORIENTED_EDGE('',*,*,#347,.T.);
#485=ORIENTED_EDGE('',*,*,#484,.T.);
#486=ORIENTED_EDGE('',*,*,#429,.F.);
#488=ORIENTED_EDGE('',*,*,#487,.F.);
#489=EDGE_LOOP('',(#483,#485,#486,#488));
#490=FACE_OUTER_BOUND('',#489,.F.);
#492=CARTESIAN_POINT('',(3.0165E1,3.0165E1,0.E0));
#493=DIRECTION('',(0.E0,0.E0,1.E0));
#494=DIRECTION('',(1.E0,0.E0,0.E0));
#495=AXIS2_PLACEMENT_3D('',#492,#493,#494);
#496=CYLINDRICAL_SURFACE('',#495,3.E0);
#497=ORIENTED_EDGE('',*,*,#349,.T.);
#498=ORIENTED_EDGE('',*,*,#487,.T.);
#499=ORIENTED_EDGE('',*,*,#431,.F.);
#500=ORIENTED_EDGE('',*,*,#484,.F.);
#501=EDGE_LOOP('',(#497,#498,#499,#500));
#502=FACE_OUTER_BOUND('',#501,.F.);
#504=CARTESIAN_POINT('',(3.0165E1,-3.0165E1,0.E0));
#505=DIRECTION('',(0.E0,0.E0,1.E0));
#506=DIRECTION('',(1.E0,0.E0,0.E0));
#507=AXIS2_PLACEMENT_3D('',#504,#505,#506);
#508=CYLINDRICAL_SURFACE('',#507,3.E0);
#509=ORIENTED_EDGE('',*,*,#353,.T.);
#511=ORIENTED_EDGE('',*,*,#510,.T.);
#512=ORIENTED_EDGE('',*,*,#435,.F.);
#514=ORIENTED_EDGE('',*,*,#513,.F.);
#515=EDGE_LOOP('',(#509,#511,#512,#514));
#516=FACE_OUTER_BOUND('',#515,.F.);
#518=CARTESIAN_POINT('',(3.0165E1,-3.0165E1,0.E0));
#519=DIRECTION('',(0.E0,0.E0,1.E0));
#520=DIRECTION('',(1.E0,0.E0,0.E0));
#521=AXIS2_PLACEMENT_3D('',#518,#519,#520);
#522=CYLINDRICAL_SURFACE('',#521,3.E0);
#523=ORIENTED_EDGE('',*,*,#355,.T.);
#524=ORIENTED_EDGE('',*,*,#513,.T.);
#525=ORIENTED_EDGE('',*,*,#437,.F.);
#526=ORIENTED_EDGE('',*,*,#510,.F.);
#527=EDGE_LOOP('',(#523,#524,#525,#526));
#528=FACE_OUTER_BOUND('',#527,.F.);
#530=CARTESIAN_POINT('',(-3.0165E1,-3.0165E1,0.E0));
#531=DIRECTION('',(0.E0,0.E0,1.E0));
#532=DIRECTION('',(1.E0,0.E0,0.E0));
#533=AXIS2_PLACEMENT_3D('',#530,#531,#532);
#534=CYLINDRICAL_SURFACE('',#533,3.E0);
#535=ORIENTED_EDGE('',*,*,#359,.T.);
#537=ORIENTED_EDGE('',*,*,#536,.T.);
#538=ORIENTED_EDGE('',*,*,#441,.F.);
#540=ORIENTED_EDGE('',*,*,#539,.F.);
#541=EDGE_LOOP('',(#535,#537,#538,#540));
#542=FACE_OUTER_BOUND('',#541,.F.);
#544=CARTESIAN_POINT('',(-3.0165E1,-3.0165E1,0.E0));
#545=DIRECTION('',(0.E0,0.E0,1.E0));
#546=DIRECTION('',(1.E0,0.E0,0.E0));
#547=AXIS2_PLACEMENT_3D('',#544,#545,#546);
#548=CYLINDRICAL_SURFACE('',#547,3.E0);
#549=ORIENTED_EDGE('',*,*,#361,.T.);
#550=ORIENTED_EDGE('',*,*,#539,.T.);
#551=ORIENTED_EDGE('',*,*,#443,.F.);
#552=ORIENTED_EDGE('',*,*,#536,.F.);
#553=EDGE_LOOP('',(#549,#550,#551,#552));
#554=FACE_OUTER_BOUND('',#553,.F.);
#556=CARTESIAN_POINT('',(3.36E1,3.81E1,0.E0));
#557=DIRECTION('',(0.E0,1.E0,0.E0));
#558=DIRECTION('',(-1.E0,0.E0,0.E0));
#559=AXIS2_PLACEMENT_3D('',#556,#557,#558);
#560=PLANE('',#559);
#561=ORIENTED_EDGE('',*,*,#323,.T.);
#563=ORIENTED_EDGE('',*,*,#562,.T.);
#564=ORIENTED_EDGE('',*,*,#405,.F.);
#566=ORIENTED_EDGE('',*,*,#565,.F.);
#567=EDGE_LOOP('',(#561,#563,#564,#566));
#568=FACE_OUTER_BOUND('',#567,.F.);
#570=CARTESIAN_POINT('',(-3.36E1,3.36E1,0.E0));
#571=DIRECTION('',(0.E0,0.E0,1.E0));
#572=DIRECTION('',(1.E0,0.E0,0.E0));
#573=AXIS2_PLACEMENT_3D('',#570,#571,#572);
#574=CYLINDRICAL_SURFACE('',#573,4.5E0);
#575=ORIENTED_EDGE('',*,*,#337,.T.);
#577=ORIENTED_EDGE('',*,*,#576,.T.);
#578=ORIENTED_EDGE('',*,*,#407,.F.);
#579=ORIENTED_EDGE('',*,*,#562,.F.);
#580=EDGE_LOOP('',(#575,#577,#578,#579));
#581=FACE_OUTER_BOUND('',#580,.F.);
#583=CARTESIAN_POINT('',(-3.81E1,3.36E1,0.E0));
#584=DIRECTION('',(-1.E0,0.E0,0.E0));
#585=DIRECTION('',(0.E0,-1.E0,0.E0));
#586=AXIS2_PLACEMENT_3D('',#583,#584,#585);
#587=PLANE('',#586);
#588=ORIENTED_EDGE('',*,*,#335,.T.);
#590=ORIENTED_EDGE('',*,*,#589,.T.);
#591=ORIENTED_EDGE('',*,*,#409,.F.);
#592=ORIENTED_EDGE('',*,*,#576,.F.);
#593=EDGE_LOOP('',(#588,#590,#591,#592));
#594=FACE_OUTER_BOUND('',#593,.F.);
#596=CARTESIAN_POINT('',(-3.36E1,-3.36E1,0.E0));
#597=DIRECTION('',(0.E0,0.E0,1.E0));
#598=DIRECTION('',(1.E0,0.E0,0.E0));
#599=AXIS2_PLACEMENT_3D('',#596,#597,#598);
#600=CYLINDRICAL_SURFACE('',#599,4.5E0);
#601=ORIENTED_EDGE('',*,*,#333,.T.);
#603=ORIENTED_EDGE('',*,*,#602,.T.);
#604=ORIENTED_EDGE('',*,*,#411,.F.);
#605=ORIENTED_EDGE('',*,*,#589,.F.);
#606=EDGE_LOOP('',(#601,#603,#604,#605));
#607=FACE_OUTER_BOUND('',#606,.F.);
#609=CARTESIAN_POINT('',(-3.36E1,-3.81E1,0.E0));
#610=DIRECTION('',(0.E0,-1.E0,0.E0));
#611=DIRECTION('',(1.E0,0.E0,0.E0));
#612=AXIS2_PLACEMENT_3D('',#609,#610,#611);
#613=PLANE('',#612);
#614=ORIENTED_EDGE('',*,*,#331,.T.);
#616=ORIENTED_EDGE('',*,*,#615,.T.);
#617=ORIENTED_EDGE('',*,*,#413,.F.);
#618=ORIENTED_EDGE('',*,*,#602,.F.);
#619=EDGE_LOOP('',(#614,#616,#617,#618));
#620=FACE_OUTER_BOUND('',#619,.F.);
#622=CARTESIAN_POINT('',(3.36E1,-3.36E1,0.E0));
#623=DIRECTION('',(0.E0,0.E0,1.E0));
#624=DIRECTION('',(1.E0,0.E0,0.E0));
#625=AXIS2_PLACEMENT_3D('',#622,#623,#624);
#626=CYLINDRICAL_SURFACE('',#625,4.5E0);
#627=ORIENTED_EDGE('',*,*,#329,.T.);
#629=ORIENTED_EDGE('',*,*,#628,.T.);
#630=ORIENTED_EDGE('',*,*,#415,.F.);
#631=ORIENTED_EDGE('',*,*,#615,.F.);
#632=EDGE_LOOP('',(#627,#629,#630,#631));
#633=FACE_OUTER_BOUND('',#632,.F.);
#635=CARTESIAN_POINT('',(3.81E1,-3.36E1,0.E0));
#636=DIRECTION('',(1.E0,0.E0,0.E0));
#637=DIRECTION('',(0.E0,1.E0,0.E0));
#638=AXIS2_PLACEMENT_3D('',#635,#636,#637);
#639=PLANE('',#638);
#640=ORIENTED_EDGE('',*,*,#327,.T.);
#642=ORIENTED_EDGE('',*,*,#641,.T.);
#643=ORIENTED_EDGE('',*,*,#417,.F.);
#644=ORIENTED_EDGE('',*,*,#628,.F.);
#645=EDGE_LOOP('',(#640,#642,#643,#644));
#646=FACE_OUTER_BOUND('',#645,.F.);
#648=CARTESIAN_POINT('',(3.36E1,3.36E1,0.E0));
#649=DIRECTION('',(0.E0,0.E0,1.E0));
#650=DIRECTION('',(1.E0,0.E0,0.E0));
#651=AXIS2_PLACEMENT_3D('',#648,#649,#650);
#652=CYLINDRICAL_SURFACE('',#651,4.5E0);
#653=ORIENTED_EDGE('',*,*,#325,.T.);
#654=ORIENTED_EDGE('',*,*,#565,.T.);
#655=ORIENTED_EDGE('',*,*,#419,.F.);
#656=ORIENTED_EDGE('',*,*,#641,.F.);
#657=EDGE_LOOP('',(#653,#654,#655,#656));
#658=FACE_OUTER_BOUND('',#657,.F.);
#664=PLANE_ANGLE_MEASURE_WITH_UNIT(PLANE_ANGLE_MEASURE(1.745329251994E-2),#663);
#665=(CONVERSION_BASED_UNIT('DEGREE',#664)NAMED_UNIT(*)PLANE_ANGLE_UNIT());
#667=UNCERTAINTY_MEASURE_WITH_UNIT(LENGTH_MEASURE(1.E-3),#662,
'distance_accuracy_value',
'Maximum model space distance between geometric entities at asserted connectivities');
#670=APPLICATION_CONTEXT('automotive_design');
#671=APPLICATION_PROTOCOL_DEFINITION('international standard',
'automotive_design',2001,#670);
#672=PRODUCT_DEFINITION_CONTEXT('part definition',#670,'design');
#673=PRODUCT_CONTEXT('',#670,'mechanical');
#674=PRODUCT('C-2488590-1','C-2488590-1','NOT SPECIFIED',(#673));
#675=PRODUCT_DEFINITION_FORMATION('3','LAST_VERSION',#674);
#683=DERIVED_UNIT_ELEMENT(#682,2.E0);
#684=DERIVED_UNIT((#683));
#685=MEASURE_REPRESENTATION_ITEM('surface area measure',AREA_MEASURE(
3.989146811155E3),#684);
#690=DERIVED_UNIT_ELEMENT(#689,3.E0);
#691=DERIVED_UNIT((#690));
#692=MEASURE_REPRESENTATION_ITEM('volume measure',VOLUME_MEASURE(
1.405452428404E3),#691);
#696=CARTESIAN_POINT('centre point',(-1.358305522048E-14,4.109204438043E-14,
-4.E-1));
#701=DERIVED_UNIT_ELEMENT(#700,2.E0);
#702=DERIVED_UNIT((#701));
#703=MEASURE_REPRESENTATION_ITEM('surface area measure',AREA_MEASURE(
3.989146811155E3),#702);
#708=DERIVED_UNIT_ELEMENT(#707,3.E0);
#709=DERIVED_UNIT((#708));
#710=MEASURE_REPRESENTATION_ITEM('volume measure',VOLUME_MEASURE(
1.405452428404E3),#709);
#714=CARTESIAN_POINT('centre point',(-1.358305522048E-14,4.109204438043E-14,
-4.E-1));
#719=PRODUCT_RELATED_PRODUCT_CATEGORY('part','',(#674));
#1=COLOUR_RGB('',8.784E-1,9.49E-1,1.E0);
#6=CIRCLE('',#5,3.532E1);
#11=CIRCLE('',#10,3.532E1);
#16=CIRCLE('',#15,3.E0);
#21=CIRCLE('',#20,3.E0);
#26=CIRCLE('',#25,3.E0);
#31=CIRCLE('',#30,3.E0);
#36=CIRCLE('',#35,3.E0);
#41=CIRCLE('',#40,3.E0);
#46=CIRCLE('',#45,3.E0);
#51=CIRCLE('',#50,3.E0);
#60=CIRCLE('',#59,4.5E0);
#69=CIRCLE('',#68,4.5E0);
#78=CIRCLE('',#77,4.5E0);
#87=CIRCLE('',#86,4.5E0);
#100=CIRCLE('',#99,3.532E1);
#105=CIRCLE('',#104,3.532E1);
#110=CIRCLE('',#109,3.E0);
#115=CIRCLE('',#114,3.E0);
#120=CIRCLE('',#119,3.E0);
#125=CIRCLE('',#124,3.E0);
#130=CIRCLE('',#129,3.E0);
#135=CIRCLE('',#134,3.E0);
#140=CIRCLE('',#139,3.E0);
#145=CIRCLE('',#144,3.E0);
#154=CIRCLE('',#153,4.5E0);
#163=CIRCLE('',#162,4.5E0);
#172=CIRCLE('',#171,4.5E0);
#181=CIRCLE('',#180,4.5E0);
#323=EDGE_CURVE('',#268,#269,#55,.T.);
#325=EDGE_CURVE('',#281,#268,#60,.T.);
#327=EDGE_CURVE('',#279,#281,#64,.T.);
#329=EDGE_CURVE('',#277,#279,#69,.T.);
#331=EDGE_CURVE('',#275,#277,#73,.T.);
#333=EDGE_CURVE('',#273,#275,#78,.T.);
#335=EDGE_CURVE('',#271,#273,#82,.T.);
#337=EDGE_CURVE('',#269,#271,#87,.T.);
#341=EDGE_CURVE('',#252,#253,#16,.T.);
#343=EDGE_CURVE('',#253,#252,#21,.T.);
#347=EDGE_CURVE('',#256,#257,#26,.T.);
#349=EDGE_CURVE('',#257,#256,#31,.T.);
#353=EDGE_CURVE('',#260,#261,#36,.T.);
#355=EDGE_CURVE('',#261,#260,#41,.T.);
#359=EDGE_CURVE('',#264,#265,#46,.T.);
#361=EDGE_CURVE('',#265,#264,#51,.T.);
#365=EDGE_CURVE('',#248,#249,#6,.T.);
#367=EDGE_CURVE('',#249,#248,#11,.T.);
#371=ADVANCED_FACE('',(#340,#346,#352,#358,#364,#370),#322,.T.);
#378=EDGE_CURVE('',#249,#285,#95,.T.);
#380=EDGE_CURVE('',#284,#285,#100,.T.);
#382=EDGE_CURVE('',#248,#284,#91,.T.);
#386=ADVANCED_FACE('',(#385),#376,.F.);
#394=EDGE_CURVE('',#285,#284,#105,.T.);
#399=ADVANCED_FACE('',(#398),#391,.F.);
#405=EDGE_CURVE('',#304,#305,#149,.T.);
#407=EDGE_CURVE('',#305,#307,#154,.T.);
#409=EDGE_CURVE('',#307,#309,#158,.T.);
#411=EDGE_CURVE('',#309,#311,#163,.T.);
#413=EDGE_CURVE('',#311,#313,#167,.T.);
#415=EDGE_CURVE('',#313,#315,#172,.T.);
#417=EDGE_CURVE('',#315,#317,#176,.T.);
#419=EDGE_CURVE('',#317,#304,#181,.T.);
#423=EDGE_CURVE('',#288,#289,#110,.T.);
#425=EDGE_CURVE('',#289,#288,#115,.T.);
#429=EDGE_CURVE('',#292,#293,#120,.T.);
#431=EDGE_CURVE('',#293,#292,#125,.T.);
#435=EDGE_CURVE('',#296,#297,#130,.T.);
#437=EDGE_CURVE('',#297,#296,#135,.T.);
#441=EDGE_CURVE('',#300,#301,#140,.T.);
#443=EDGE_CURVE('',#301,#300,#145,.T.);
#451=ADVANCED_FACE('',(#422,#428,#434,#440,#446,#450),#404,.F.);
#458=EDGE_CURVE('',#253,#289,#189,.T.);
#461=EDGE_CURVE('',#252,#288,#185,.T.);
#465=ADVANCED_FACE('',(#464),#456,.F.);
#477=ADVANCED_FACE('',(#476),#470,.F.);
#484=EDGE_CURVE('',#257,#293,#197,.T.);
#487=EDGE_CURVE('',#256,#292,#193,.T.);
#491=ADVANCED_FACE('',(#490),#482,.F.);
#503=ADVANCED_FACE('',(#502),#496,.F.);
#510=EDGE_CURVE('',#261,#297,#205,.T.);
#513=EDGE_CURVE('',#260,#296,#201,.T.);
#517=ADVANCED_FACE('',(#516),#508,.F.);
#529=ADVANCED_FACE('',(#528),#522,.F.);
#536=EDGE_CURVE('',#265,#301,#213,.T.);
#539=EDGE_CURVE('',#264,#300,#209,.T.);
#543=ADVANCED_FACE('',(#542),#534,.F.);
#555=ADVANCED_FACE('',(#554),#548,.F.);
#562=EDGE_CURVE('',#269,#305,#221,.T.);
#565=EDGE_CURVE('',#268,#304,#217,.T.);
#569=ADVANCED_FACE('',(#568),#560,.T.);
#576=EDGE_CURVE('',#271,#307,#225,.T.);
#582=ADVANCED_FACE('',(#581),#574,.T.);
#589=EDGE_CURVE('',#273,#309,#229,.T.);
#595=ADVANCED_FACE('',(#594),#587,.T.);
#602=EDGE_CURVE('',#275,#311,#233,.T.);
#608=ADVANCED_FACE('',(#607),#600,.T.);
#615=EDGE_CURVE('',#277,#313,#237,.T.);
#621=ADVANCED_FACE('',(#620),#613,.T.);
#628=EDGE_CURVE('',#279,#315,#241,.T.);
#634=ADVANCED_FACE('',(#633),#626,.T.);
#641=EDGE_CURVE('',#281,#317,#245,.T.);
#647=ADVANCED_FACE('',(#646),#639,.T.);
#659=ADVANCED_FACE('',(#658),#652,.T.);
#660=CLOSED_SHELL('',(#371,#386,#399,#451,#465,#477,#491,#503,#517,#529,#543,
#555,#569,#582,#595,#608,#621,#634,#647,#659));
#661=MANIFOLD_SOLID_BREP('',#660);
#662=(LENGTH_UNIT()NAMED_UNIT(*)SI_UNIT(.MILLI.,.METRE.));
#663=(NAMED_UNIT(*)PLANE_ANGLE_UNIT()SI_UNIT($,.RADIAN.));
#666=(NAMED_UNIT(*)SI_UNIT($,.STERADIAN.)SOLID_ANGLE_UNIT());
#668=(GEOMETRIC_REPRESENTATION_CONTEXT(3)GLOBAL_UNCERTAINTY_ASSIGNED_CONTEXT((
#667))GLOBAL_UNIT_ASSIGNED_CONTEXT((#662,#665,#666))REPRESENTATION_CONTEXT
('ID1','3'));
#669=ADVANCED_BREP_SHAPE_REPRESENTATION('',(#661),#668);
#676=PRODUCT_DEFINITION('part definition','',#675,#672);
#677=PRODUCT_DEFINITION_SHAPE('','SHAPE FOR C-2488590-1.',#676);
#678=SHAPE_ASPECT('','solid data associated with C-2488590-1',#677,.F.);
#679=PROPERTY_DEFINITION('',
'shape for solid data with which properties are associated',#678);
#680=SHAPE_REPRESENTATION('',(#661),#668);
#681=SHAPE_DEFINITION_REPRESENTATION(#679,#680);
#682=(LENGTH_UNIT()NAMED_UNIT(*)SI_UNIT(.MILLI.,.METRE.));
#686=PROPERTY_DEFINITION('geometric validation property','area of C-2488590-1',
#678);
#687=REPRESENTATION('surface area',(#685),#668);
#688=PROPERTY_DEFINITION_REPRESENTATION(#686,#687);
#689=(LENGTH_UNIT()NAMED_UNIT(*)SI_UNIT(.MILLI.,.METRE.));
#693=PROPERTY_DEFINITION('geometric validation property',
'volume of C-2488590-1',#678);
#694=REPRESENTATION('volume',(#692),#668);
#695=PROPERTY_DEFINITION_REPRESENTATION(#693,#694);
#697=PROPERTY_DEFINITION('geometric validation property',
'centroid of C-2488590-1',#678);
#698=REPRESENTATION('centroid',(#696),#668);
#699=PROPERTY_DEFINITION_REPRESENTATION(#697,#698);
#700=(LENGTH_UNIT()NAMED_UNIT(*)SI_UNIT(.MILLI.,.METRE.));
#704=PROPERTY_DEFINITION('geometric validation property','area of C-2488590-1',
#677);
#705=REPRESENTATION('surface area',(#703),#668);
#706=PROPERTY_DEFINITION_REPRESENTATION(#704,#705);
#707=(LENGTH_UNIT()NAMED_UNIT(*)SI_UNIT(.MILLI.,.METRE.));
#711=PROPERTY_DEFINITION('geometric validation property',
'volume of C-2488590-1',#677);
#712=REPRESENTATION('volume',(#710),#668);
#713=PROPERTY_DEFINITION_REPRESENTATION(#711,#712);
#715=PROPERTY_DEFINITION('geometric validation property',
'centroid of C-2488590-1',#677);
#716=REPRESENTATION('centroid',(#714),#668);
#717=PROPERTY_DEFINITION_REPRESENTATION(#715,#716);
#718=SHAPE_DEFINITION_REPRESENTATION(#677,#669);
ENDSEC;
END-ISO-10303-21;
