ISO-10303-21;
HEADER;
FILE_DESCRIPTION (( 'STEP AP203' ),
    '1' );
FILE_NAME ('S93515-B_monoblock.STEP',
    '2012-09-19T13:52:17',
    ( 'ad' ),
    ( '' ),
    'SwSTEP 2.0',
    'SolidWorks 2011',
    '' );
FILE_SCHEMA (( 'CONFIG_CONTROL_DESIGN' ));
ENDSEC;

DATA;
#1 = MANIFOLD_SOLID_BREP ( 'S93516-1-solid1', #407 ) ;
#2 = DESIGN_CONTEXT ( 'detailed design', #5, 'design' ) ;
#3 = PRODUCT_DEFINITION_SHAPE ( 'NONE', 'NONE',  #319 ) ;
#4 = UNCERTAINTY_MEASURE_WITH_UNIT (LENGTH_MEASURE( 1.000000000000000100E-005 ), #297, 'distance_accuracy_value', 'NONE');
#5 = APPLICATION_CONTEXT ( 'configuration controlled 3d designs of mechanical parts and assemblies' ) ;
#6 = APPLICATION_CONTEXT ( 'configuration controlled 3d designs of mechanical parts and assemblies' ) ;
#7 = VERTEX_POINT ( 'NONE', #300 ) ;
#8 = LINE ( 'NONE', #302, #375 ) ;
#9 = DIRECTION ( 'NONE',  ( -0.0000000000000000000, -3.469446951953613400E-015, -1.000000000000000000 ) ) ;
#10 = CARTESIAN_POINT ( 'NONE',  ( 6.339999999999999900, 6.200000000000000200, 1.199999999999995700 ) ) ;
#11 = LINE ( 'NONE', #10, #376 ) ;
#12 = DIRECTION ( 'NONE',  ( 0.0000000000000000000, -3.469446951953613800E-015, -1.000000000000000000 ) ) ;
#13 = CARTESIAN_POINT ( 'NONE',  ( -4.990000000000031300, 5.000000000000000000, 1.200000000000000000 ) ) ;
#14 = DIRECTION ( 'NONE',  ( 0.0000000000000000000, 1.000000000000000000, 3.690901012716612100E-016 ) ) ;
#15 = LINE ( 'NONE', #26, #388 ) ;
#16 = CARTESIAN_POINT ( 'NONE',  ( 0.0000000000000000000, 0.0000000000000000000, 0.0000000000000000000 ) ) ;
#17 = CARTESIAN_POINT ( 'NONE',  ( 6.340000000000000700, 6.200000000000051700, 15.20000000000005100 ) ) ;
#18 = DIRECTION ( 'NONE',  ( 0.0000000000000000000, 0.0000000000000000000, -1.000000000000000000 ) ) ;
#19 = VERTEX_POINT ( 'NONE', #298 ) ;
#20 = DIRECTION ( 'NONE',  ( 0.0000000000000000000, -1.000000000000000000, -3.690901012716612100E-016 ) ) ;
#21 = DIRECTION ( 'NONE',  ( -1.000000000000000000, 0.0000000000000000000, 0.0000000000000000000 ) ) ;
#22 = LINE ( 'NONE', #13, #379 ) ;
#23 = DIRECTION ( 'NONE',  ( -0.0000000000000000000, -1.000000000000000000, -0.0000000000000000000 ) ) ;
#24 = CARTESIAN_POINT ( 'NONE',  ( -4.990000000000050000, 4.699999999999993100, 15.20000000000000600 ) ) ;
#25 = CARTESIAN_POINT ( 'NONE',  ( 6.339999999999999900, -6.200000000000017900, 0.0000000000000000000 ) ) ;
#26 = CARTESIAN_POINT ( 'NONE',  ( -6.340000000000000700, 6.200000000000051700, 15.20000000000000500 ) ) ;
#27 = CARTESIAN_POINT ( 'NONE',  ( 4.990000000000033100, 5.000000000000000000, 1.200000000000000000 ) ) ;
#28 = LINE ( 'NONE', #17, #377 ) ;
#29 = DIRECTION ( 'NONE',  ( 0.0000000000000000000, 3.469446951953613400E-015, 1.000000000000000000 ) ) ;
#30 = DIRECTION ( 'NONE',  ( 0.0000000000000000000, 1.000000000000000000, -3.469446951953613400E-015 ) ) ;
#31 = LINE ( 'NONE', #24, #391 ) ;
#32 = DIRECTION ( 'NONE',  ( 9.227252531791541400E-017, 1.000000000000000000, 3.690901012716615100E-016 ) ) ;
#33 = PLANE ( 'NONE',  #380 ) ;
#34 = FACE_OUTER_BOUND ( 'NONE', #185, .T. ) ;
#35 = DIRECTION ( 'NONE',  ( -1.000000000000000000, 0.0000000000000000000, 0.0000000000000000000 ) ) ;
#36 = DIRECTION ( 'NONE',  ( -0.0000000000000000000, -3.469446951953613400E-015, -1.000000000000000000 ) ) ;
#37 = CARTESIAN_POINT ( 'NONE',  ( 6.339999999999999900, 6.200000000000000200, 1.199999999999995700 ) ) ;
#38 = PLANE ( 'NONE',  #381 ) ;
#39 = FACE_OUTER_BOUND ( 'NONE', #231, .T. ) ;
#40 = FACE_BOUND ( 'NONE', #226, .T. ) ;
#41 = LINE ( 'NONE', #25, #384 ) ;
#42 = DIRECTION ( 'NONE',  ( 3.531401361809928100E-015, 0.0000000000000000000, -1.000000000000000000 ) ) ;
#43 = DIRECTION ( 'NONE',  ( 1.000000000000000000, -9.227252531791672100E-017, 3.531401361809928100E-015 ) ) ;
#44 = FACE_OUTER_BOUND ( 'NONE', #248, .T. ) ;
#45 = PLANE ( 'NONE',  #382 ) ;
#46 = FACE_OUTER_BOUND ( 'NONE', #186, .T. ) ;
#47 = DIRECTION ( 'NONE',  ( 0.0000000000000000000, -3.469446951953613400E-015, 1.000000000000000000 ) ) ;
#48 = DIRECTION ( 'NONE',  ( -0.0000000000000000000, 1.000000000000000000, 3.469446951953613400E-015 ) ) ;
#49 = CARTESIAN_POINT ( 'NONE',  ( -6.339999999999999900, -5.000000000000048800, 15.20000000000000300 ) ) ;
#50 = PLANE ( 'NONE',  #383 ) ;
#51 = CARTESIAN_POINT ( 'NONE',  ( 6.339999999999999900, 5.000000000000017800, 6.200000000000003700 ) ) ;
#52 = DIRECTION ( 'NONE',  ( -1.000000000000000000, 0.0000000000000000000, 0.0000000000000000000 ) ) ;
#53 = CARTESIAN_POINT ( 'NONE',  ( -6.339999999999999900, -6.200000000000048100, 15.19999999999999900 ) ) ;
#54 = CARTESIAN_POINT ( 'NONE',  ( -4.990000000000000200, 4.700000000000001100, 1.200000000000003100 ) ) ;
#55 = CARTESIAN_POINT ( 'NONE',  ( 4.990000000000051700, -4.700000000000002800, 15.20000000000000300 ) ) ;
#56 = LINE ( 'NONE', #55, #390 ) ;
#57 = DIRECTION ( 'NONE',  ( 0.0000000000000000000, 0.0000000000000000000, -1.000000000000000000 ) ) ;
#58 = DIRECTION ( 'NONE',  ( 1.600673158566519700E-031, -1.000000000000000000, -5.588720462722100400E-046 ) ) ;
#59 = FACE_OUTER_BOUND ( 'NONE', #224, .T. ) ;
#60 = DIRECTION ( 'NONE',  ( 0.0000000000000000000, -3.491481338843133000E-015, -1.000000000000000000 ) ) ;
#61 = LINE ( 'NONE', #53, #389 ) ;
#62 = DIRECTION ( 'NONE',  ( 0.0000000000000000000, 1.000000000000000000, -3.491481338843133000E-015 ) ) ;
#63 = PLANE ( 'NONE',  #386 ) ;
#64 = FACE_BOUND ( 'NONE', #232, .T. ) ;
#65 = DIRECTION ( 'NONE',  ( -6.195440985631452900E-017, 0.0000000000000000000, 1.000000000000000000 ) ) ;
#66 = DIRECTION ( 'NONE',  ( -1.000000000000000000, 2.163126658723612400E-031, -6.195440985631452900E-017 ) ) ;
#67 = CARTESIAN_POINT ( 'NONE',  ( 6.339999999999999000, -6.200000000000048100, 15.19999999999999900 ) ) ;
#68 = PLANE ( 'NONE',  #387 ) ;
#69 = FACE_OUTER_BOUND ( 'NONE', #183, .T. ) ;
#70 = DIRECTION ( 'NONE',  ( 1.000000000000000000, 0.0000000000000000000, 0.0000000000000000000 ) ) ;
#71 = CARTESIAN_POINT ( 'NONE',  ( 6.339999999999999900, 6.200000000000048100, 15.19999999999999900 ) ) ;
#72 = CARTESIAN_POINT ( 'NONE',  ( -6.339999999999999900, 6.200000000000017900, 0.0000000000000000000 ) ) ;
#73 = DIRECTION ( 'NONE',  ( -0.0000000000000000000, -0.0000000000000000000, -1.000000000000000000 ) ) ;
#74 = FACE_OUTER_BOUND ( 'NONE', #187, .T. ) ;
#75 = CARTESIAN_POINT ( 'NONE',  ( 4.990000000000036600, -5.000000000000017800, 32.93534324449355900 ) ) ;
#76 = DIRECTION ( 'NONE',  ( 1.600673158566519700E-031, -1.000000000000000000, -5.553450611062574200E-046 ) ) ;
#77 = CARTESIAN_POINT ( 'NONE',  ( 4.990000000000020600, -4.699999999999999300, 6.200000000000003700 ) ) ;
#78 = LINE ( 'NONE', #77, #393 ) ;
#79 = DIRECTION ( 'NONE',  ( 1.000000000000000000, 0.0000000000000000000, 0.0000000000000000000 ) ) ;
#80 = CARTESIAN_POINT ( 'NONE',  ( 6.339999999999999900, 5.000000000000048800, 15.20000000000000300 ) ) ;
#81 = LINE ( 'NONE', #80, #394 ) ;
#82 = CARTESIAN_POINT ( 'NONE',  ( 6.339999999999999900, 6.200000000000048100, 15.19999999999999900 ) ) ;
#83 = LINE ( 'NONE', #82, #402 ) ;
#84 = DIRECTION ( 'NONE',  ( 1.000000000000000000, -0.0000000000000000000, -0.0000000000000000000 ) ) ;
#85 = CARTESIAN_POINT ( 'NONE',  ( -4.990000000000018000, 4.700000000000001100, 6.200000000000002800 ) ) ;
#86 = DIRECTION ( 'NONE',  ( 9.227252531791672100E-017, 1.000000000000000000, 3.258513215653321700E-031 ) ) ;
#87 = DIRECTION ( 'NONE',  ( -1.000000000000000000, 0.0000000000000000000, 0.0000000000000000000 ) ) ;
#88 = LINE ( 'NONE', #85, #401 ) ;
#89 = CARTESIAN_POINT ( 'NONE',  ( 6.339999999999999900, 5.000000000000017800, 6.200000000000000200 ) ) ;
#90 = LINE ( 'NONE', #89, #396 ) ;
#91 = LINE ( 'NONE', #72, #392 ) ;
#92 = LINE ( 'NONE', #75, #397 ) ;
#93 = DIRECTION ( 'NONE',  ( 0.0000000000000000000, -3.469446951953613400E-015, 1.000000000000000000 ) ) ;
#94 = DIRECTION ( 'NONE',  ( -0.0000000000000000000, 1.000000000000000000, 3.469446951953613400E-015 ) ) ;
#95 = PLANE ( 'NONE',  #395 ) ;
#96 = CARTESIAN_POINT ( 'NONE',  ( -6.339999999999999900, -6.200000000000048100, 15.19999999999999900 ) ) ;
#97 = DIRECTION ( 'NONE',  ( 1.000000000000000000, 0.0000000000000000000, 0.0000000000000000000 ) ) ;
#98 = FACE_OUTER_BOUND ( 'NONE', #188, .T. ) ;
#99 = CARTESIAN_POINT ( 'NONE',  ( 4.990000000000036600, -5.000000000000016900, 15.20000000000004000 ) ) ;
#100 = DIRECTION ( 'NONE',  ( -1.000000000000000000, -0.0000000000000000000, -0.0000000000000000000 ) ) ;
#101 = CARTESIAN_POINT ( 'NONE',  ( -6.339999999999999900, -5.000000000000048800, 15.20000000000000300 ) ) ;
#102 = LINE ( 'NONE', #101, #400 ) ;
#103 = CARTESIAN_POINT ( 'NONE',  ( -6.339999999999999900, 6.200000000000017900, 0.0000000000000000000 ) ) ;
#104 = DIRECTION ( 'NONE',  ( -1.203706215242018000E-030, 3.469446951953613800E-015, 1.000000000000000000 ) ) ;
#105 = LINE ( 'NONE', #107, #354 ) ;
#106 = DIRECTION ( 'NONE',  ( -1.000000000000000000, 0.0000000000000000000, 0.0000000000000000000 ) ) ;
#107 = CARTESIAN_POINT ( 'NONE',  ( -6.339999999999999900, -5.000000000000017800, 6.200000000000002000 ) ) ;
#108 = CARTESIAN_POINT ( 'NONE',  ( 0.0000000000000000000, 0.0000000000000000000, 15.20000000000000300 ) ) ;
#109 = FACE_OUTER_BOUND ( 'NONE', #176, .T. ) ;
#110 = CYLINDRICAL_SURFACE ( 'NONE', #398, 3.100000000000000100 ) ;
#111 = PLANE ( 'NONE',  #353 ) ;
#112 = DIRECTION ( 'NONE',  ( 0.0000000000000000000, 3.469446951953613400E-015, 1.000000000000000000 ) ) ;
#113 = DIRECTION ( 'NONE',  ( 0.0000000000000000000, 1.000000000000000000, -3.469446951953613400E-015 ) ) ;
#114 = DIRECTION ( 'NONE',  ( -0.0000000000000000000, -0.0000000000000000000, -1.000000000000000000 ) ) ;
#115 = PLANE ( 'NONE',  #399 ) ;
#116 = CARTESIAN_POINT ( 'NONE',  ( 6.339999999999999900, 5.000000000000000000, 1.200000000000000000 ) ) ;
#117 = DIRECTION ( 'NONE',  ( -0.0000000000000000000, -0.0000000000000000000, -1.000000000000000000 ) ) ;
#118 = CARTESIAN_POINT ( 'NONE',  ( -4.990000000000031300, -5.000000000000017800, 32.93534324449355900 ) ) ;
#119 = FACE_OUTER_BOUND ( 'NONE', #175, .T. ) ;
#120 = LINE ( 'NONE', #118, #403 ) ;
#121 = DIRECTION ( 'NONE',  ( -1.000000000000000000, -0.0000000000000000000, -0.0000000000000000000 ) ) ;
#122 = CARTESIAN_POINT ( 'NONE',  ( -6.339999999999999900, -6.200000000000017900, 0.0000000000000000000 ) ) ;
#123 = DIRECTION ( 'NONE',  ( 0.0000000000000000000, 1.000000000000000000, 0.0000000000000000000 ) ) ;
#124 = DIRECTION ( 'NONE',  ( -6.195440985631452900E-017, -3.469446951953613400E-015, 1.000000000000000000 ) ) ;
#125 = DIRECTION ( 'NONE',  ( 0.0000000000000000000, 3.469446951953613400E-015, 1.000000000000000000 ) ) ;
#126 = ORIENTED_EDGE ( 'NONE', *, *, #335, .F. ) ;
#127 = CARTESIAN_POINT ( 'NONE',  ( 6.339999999999999900, -6.200000000000048100, 15.19999999999999900 ) ) ;
#128 = LINE ( 'NONE', #127, #356 ) ;
#129 = FACE_OUTER_BOUND ( 'NONE', #225, .T. ) ;
#130 = LINE ( 'NONE', #122, #406 ) ;
#131 = LINE ( 'NONE', #240, #410 ) ;
#132 = DIRECTION ( 'NONE',  ( 0.0000000000000000000, 0.0000000000000000000, -1.000000000000000000 ) ) ;
#133 = DIRECTION ( 'NONE',  ( 1.000000000000000000, 0.0000000000000000000, 0.0000000000000000000 ) ) ;
#134 = ORIENTED_EDGE ( 'NONE', *, *, #313, .F. ) ;
#135 = ORIENTED_EDGE ( 'NONE', *, *, #351, .T. ) ;
#136 = ORIENTED_EDGE ( 'NONE', *, *, #336, .T. ) ;
#137 = ORIENTED_EDGE ( 'NONE', *, *, #339, .T. ) ;
#138 = ORIENTED_EDGE ( 'NONE', *, *, #304, .T. ) ;
#139 = ORIENTED_EDGE ( 'NONE', *, *, #309, .T. ) ;
#140 = ORIENTED_EDGE ( 'NONE', *, *, #325, .F. ) ;
#141 = ORIENTED_EDGE ( 'NONE', *, *, #304, .F. ) ;
#142 = ORIENTED_EDGE ( 'NONE', *, *, #345, .T. ) ;
#143 = ORIENTED_EDGE ( 'NONE', *, *, #309, .F. ) ;
#144 = ORIENTED_EDGE ( 'NONE', *, *, #333, .F. ) ;
#145 = ORIENTED_EDGE ( 'NONE', *, *, #349, .F. ) ;
#146 = ORIENTED_EDGE ( 'NONE', *, *, #350, .T. ) ;
#147 = ORIENTED_EDGE ( 'NONE', *, *, #348, .T. ) ;
#148 = ORIENTED_EDGE ( 'NONE', *, *, #348, .F. ) ;
#149 = ORIENTED_EDGE ( 'NONE', *, *, #351, .F. ) ;
#150 = ORIENTED_EDGE ( 'NONE', *, *, #307, .T. ) ;
#151 = ORIENTED_EDGE ( 'NONE', *, *, #312, .F. ) ;
#152 = ORIENTED_EDGE ( 'NONE', *, *, #336, .F. ) ;
#153 = CARTESIAN_POINT ( 'NONE',  ( 4.990000000000033100, 5.000000000000018700, 6.200000000000021500 ) ) ;
#154 = CARTESIAN_POINT ( 'NONE',  ( 6.339999999999999900, 6.200000000000017900, 0.0000000000000000000 ) ) ;
#155 = CARTESIAN_POINT ( 'NONE',  ( 4.990000000000036600, -5.000000000000017800, 6.200000000000021500 ) ) ;
#156 = CARTESIAN_POINT ( 'NONE',  ( -6.339999999999999900, -6.200000000000017900, 0.0000000000000000000 ) ) ;
#157 = ORIENTED_EDGE ( 'NONE', *, *, #332, .F. ) ;
#158 = ORIENTED_EDGE ( 'NONE', *, *, #330, .T. ) ;
#159 = ORIENTED_EDGE ( 'NONE', *, *, #325, .T. ) ;
#160 = DIRECTION ( 'NONE',  ( 0.0000000000000000000, 1.000000000000000000, -3.357529308342207300E-015 ) ) ;
#161 = CARTESIAN_POINT ( 'NONE',  ( 4.990000000000034000, 5.000000000000018700, 15.20000000000004400 ) ) ;
#162 = FACE_BOUND ( 'NONE', #189, .T. ) ;
#163 = DIRECTION ( 'NONE',  ( -1.000000000000000000, 0.0000000000000000000, -0.0000000000000000000 ) ) ;
#164 = FACE_OUTER_BOUND ( 'NONE', #204, .T. ) ;
#165 = LINE ( 'NONE', #166, #405 ) ;
#166 = CARTESIAN_POINT ( 'NONE',  ( -6.339999999999999900, 6.200000000000000200, 1.199999999999996600 ) ) ;
#167 = DIRECTION ( 'NONE',  ( 6.195440985631452900E-017, 3.469446951953613400E-015, 1.000000000000000000 ) ) ;
#168 = PLANE ( 'NONE',  #409 ) ;
#169 = DIRECTION ( 'NONE',  ( -1.000000000000000000, -1.600673158566519700E-031, 3.469446951953613400E-015 ) ) ;
#170 = DIRECTION ( 'NONE',  ( 3.469446951953613400E-015, 0.0000000000000000000, 1.000000000000000000 ) ) ;
#171 = LINE ( 'NONE', #27, #374 ) ;
#172 = CARTESIAN_POINT ( 'NONE',  ( -6.339999999999999900, -6.200000000000000200, 1.199999999999995700 ) ) ;
#173 = ORIENTED_EDGE ( 'NONE', *, *, #340, .T. ) ;
#174 = ORIENTED_EDGE ( 'NONE', *, *, #307, .F. ) ;
#175 = EDGE_LOOP ( 'NONE', ( #150, #144, #146, #180 ) ) ;
#176 = EDGE_LOOP ( 'NONE', ( #190 ) ) ;
#177 = CARTESIAN_POINT ( 'NONE',  ( 4.990000000000002900, -4.699999999999999300, 1.199999999999999500 ) ) ;
#178 = VERTEX_POINT ( 'NONE', #154 ) ;
#179 = ORIENTED_EDGE ( 'NONE', *, *, #346, .T. ) ;
#180 = ORIENTED_EDGE ( 'NONE', *, *, #330, .F. ) ;
#181 = ORIENTED_EDGE ( 'NONE', *, *, #316, .T. ) ;
#182 = ORIENTED_EDGE ( 'NONE', *, *, #340, .F. ) ;
#183 = EDGE_LOOP ( 'NONE', ( #145, #182, #148, #157 ) ) ;
#184 = CARTESIAN_POINT ( 'NONE',  ( -4.990000000000031300, 5.000000000000018700, 15.20000000000003300 ) ) ;
#185 = EDGE_LOOP ( 'NONE', ( #205, #135, #152, #138 ) ) ;
#186 = EDGE_LOOP ( 'NONE', ( #236, #199, #242, #202 ) ) ;
#187 = EDGE_LOOP ( 'NONE', ( #147, #143, #227, #149 ) ) ;
#188 = EDGE_LOOP ( 'NONE', ( #173, #200, #151, #139 ) ) ;
#189 = EDGE_LOOP ( 'NONE', ( #192 ) ) ;
#190 = ORIENTED_EDGE ( 'NONE', *, *, #347, .T. ) ;
#191 = ORIENTED_EDGE ( 'NONE', *, *, #335, .T. ) ;
#192 = ORIENTED_EDGE ( 'NONE', *, *, #347, .F. ) ;
#193 = CARTESIAN_POINT ( 'NONE',  ( -4.990000000000031300, -5.000000000000017800, 15.20000000000000500 ) ) ;
#194 = CARTESIAN_POINT ( 'NONE',  ( -4.990000000000031300, 5.000000000000019500, 6.200000000000021500 ) ) ;
#195 = CARTESIAN_POINT ( 'NONE',  ( 6.340000000000000700, 6.200000000000044600, 15.20000000000005100 ) ) ;
#196 = EDGE_LOOP ( 'NONE', ( #229, #237, #141, #235 ) ) ;
#197 = CARTESIAN_POINT ( 'NONE',  ( -6.340000000000000700, 6.200000000000044600, 15.20000000000000500 ) ) ;
#198 = ORIENTED_EDGE ( 'NONE', *, *, #331, .F. ) ;
#199 = ORIENTED_EDGE ( 'NONE', *, *, #313, .T. ) ;
#200 = ORIENTED_EDGE ( 'NONE', *, *, #352, .T. ) ;
#201 = ORIENTED_EDGE ( 'NONE', *, *, #312, .T. ) ;
#202 = ORIENTED_EDGE ( 'NONE', *, *, #350, .F. ) ;
#203 = VERTEX_POINT ( 'NONE', #184 ) ;
#204 = EDGE_LOOP ( 'NONE', ( #126, #239, #174, #220 ) ) ;
#205 = ORIENTED_EDGE ( 'NONE', *, *, #332, .T. ) ;
#206 = VERTEX_POINT ( 'NONE', #153 ) ;
#207 = VERTEX_POINT ( 'NONE', #194 ) ;
#208 = VERTEX_POINT ( 'NONE', #193 ) ;
#209 = VERTEX_POINT ( 'NONE', #156 ) ;
#210 = VERTEX_POINT ( 'NONE', #155 ) ;
#211 = VERTEX_POINT ( 'NONE', #246 ) ;
#212 = VERTEX_POINT ( 'NONE', #243 ) ;
#213 = VERTEX_POINT ( 'NONE', #195 ) ;
#214 = VERTEX_POINT ( 'NONE', #233 ) ;
#215 = VERTEX_POINT ( 'NONE', #245 ) ;
#216 = VERTEX_POINT ( 'NONE', #197 ) ;
#217 = VERTEX_POINT ( 'NONE', #103 ) ;
#218 = VERTEX_POINT ( 'NONE', #161 ) ;
#219 = ORIENTED_EDGE ( 'NONE', *, *, #316, .F. ) ;
#220 = ORIENTED_EDGE ( 'NONE', *, *, #334, .T. ) ;
#221 = ORIENTED_EDGE ( 'NONE', *, *, #306, .F. ) ;
#222 = ORIENTED_EDGE ( 'NONE', *, *, #311, .T. ) ;
#223 = VERTEX_POINT ( 'NONE', #99 ) ;
#224 = EDGE_LOOP ( 'NONE', ( #140, #134, #219, #191 ) ) ;
#225 = EDGE_LOOP ( 'NONE', ( #238 ) ) ;
#226 = EDGE_LOOP ( 'NONE', ( #221 ) ) ;
#227 = ORIENTED_EDGE ( 'NONE', *, *, #346, .F. ) ;
#228 = ORIENTED_EDGE ( 'NONE', *, *, #333, .T. ) ;
#229 = ORIENTED_EDGE ( 'NONE', *, *, #352, .F. ) ;
#230 = ORIENTED_EDGE ( 'NONE', *, *, #334, .F. ) ;
#231 = EDGE_LOOP ( 'NONE', ( #222, #136, #179, #201 ) ) ;
#232 = EDGE_LOOP ( 'NONE', ( #228, #137, #181, #142 ) ) ;
#233 = CARTESIAN_POINT ( 'NONE',  ( -6.340000000000000700, -6.200000000000044600, 15.20000000000002600 ) ) ;
#234 = CARTESIAN_POINT ( 'NONE',  ( 0.0000000000000000000, 0.0000000000000000000, 6.200000000000021500 ) ) ;
#235 = ORIENTED_EDGE ( 'NONE', *, *, #311, .F. ) ;
#236 = ORIENTED_EDGE ( 'NONE', *, *, #345, .F. ) ;
#237 = ORIENTED_EDGE ( 'NONE', *, *, #349, .T. ) ;
#238 = ORIENTED_EDGE ( 'NONE', *, *, #306, .T. ) ;
#239 = ORIENTED_EDGE ( 'NONE', *, *, #339, .F. ) ;
#240 = CARTESIAN_POINT ( 'NONE',  ( -6.339999999999999900, -6.200000000000017900, 0.0000000000000000000 ) ) ;
#241 = PLANE ( 'NONE',  #404 ) ;
#242 = ORIENTED_EDGE ( 'NONE', *, *, #331, .T. ) ;
#243 = CARTESIAN_POINT ( 'NONE',  ( 6.339999999999999900, -6.200000000000017900, 0.0000000000000000000 ) ) ;
#244 = FACE_OUTER_BOUND ( 'NONE', #196, .T. ) ;
#245 = CARTESIAN_POINT ( 'NONE',  ( 6.340000000000000700, -6.200000000000044600, 15.20000000000004400 ) ) ;
#246 = CARTESIAN_POINT ( 'NONE',  ( -4.990000000000031300, -5.000000000000017800, 6.200000000000021500 ) ) ;
#247 = CARTESIAN_POINT ( 'NONE',  ( -6.339999999999999900, 6.200000000000000200, 0.0000000000000000000 ) ) ;
#248 = EDGE_LOOP ( 'NONE', ( #158, #198, #159, #230 ) ) ;
#249 = APPROVAL_DATE_TIME ( #250, #310 ) ;
#250 = DATE_AND_TIME ( #251, #359 ) ;
#251 = CALENDAR_DATE ( 2012, 19, 9 ) ;
#252 = COORDINATED_UNIVERSAL_TIME_OFFSET ( 1, 0, .AHEAD. ) ;
#253 = APPROVAL_ROLE ( '' ) ;
#254 = APPROVAL_STATUS ( 'not_yet_approved' ) ;
#255 = PERSON_AND_ORGANIZATION ( #411, #371 ) ;
#256 = DATE_TIME_ROLE ( 'classification_date' ) ;
#257 = DATE_AND_TIME ( #258, #361 ) ;
#258 = CALENDAR_DATE ( 2012, 19, 9 ) ;
#259 = COORDINATED_UNIVERSAL_TIME_OFFSET ( 1, 0, .AHEAD. ) ;
#260 = PERSON_AND_ORGANIZATION_ROLE ( 'classification_officer' ) ;
#261 = PERSON_AND_ORGANIZATION ( #411, #371 ) ;
#262 = SECURITY_CLASSIFICATION_LEVEL ( 'unclassified' ) ;
#263 = PERSON_AND_ORGANIZATION_ROLE ( 'design_supplier' ) ;
#264 = PERSON_AND_ORGANIZATION ( #411, #371 ) ;
#265 = PERSON_AND_ORGANIZATION_ROLE ( 'creator' ) ;
#266 = PERSON_AND_ORGANIZATION ( #411, #371 ) ;
#267 = APPROVAL_DATE_TIME ( #268, #323 ) ;
#268 = DATE_AND_TIME ( #269, #364 ) ;
#269 = CALENDAR_DATE ( 2012, 19, 9 ) ;
#270 = COORDINATED_UNIVERSAL_TIME_OFFSET ( 1, 0, .AHEAD. ) ;
#271 = APPROVAL_ROLE ( '' ) ;
#272 = APPROVAL_STATUS ( 'not_yet_approved' ) ;
#273 = PERSON_AND_ORGANIZATION ( #411, #371 ) ;
#274 = DATE_TIME_ROLE ( 'creation_date' ) ;
#275 = DATE_AND_TIME ( #276, #367 ) ;
#276 = CALENDAR_DATE ( 2012, 19, 9 ) ;
#277 = COORDINATED_UNIVERSAL_TIME_OFFSET ( 1, 0, .AHEAD. ) ;
#278 = PERSON_AND_ORGANIZATION_ROLE ( 'creator' ) ;
#279 = PERSON_AND_ORGANIZATION ( #411, #371 ) ;
#280 = APPROVAL_DATE_TIME ( #281, #320 ) ;
#281 = DATE_AND_TIME ( #282, #369 ) ;
#282 = CALENDAR_DATE ( 2012, 19, 9 ) ;
#283 = COORDINATED_UNIVERSAL_TIME_OFFSET ( 1, 0, .AHEAD. ) ;
#284 = APPROVAL_ROLE ( '' ) ;
#285 = APPROVAL_STATUS ( 'not_yet_approved' ) ;
#286 = PERSON_AND_ORGANIZATION ( #411, #371 ) ;
#287 = APPLICATION_PROTOCOL_DEFINITION ( 'international standard', 'config_control_design', 1994, #5 ) ;
#288 = PERSON_AND_ORGANIZATION_ROLE ( 'design_owner' ) ;
#289 = PERSON_AND_ORGANIZATION ( #411, #371 ) ;
#290 = DIRECTION ( 'NONE',  ( 1.000000000000000000, 0.0000000000000000000, 0.0000000000000000000 ) ) ;
#291 = DIRECTION ( 'NONE',  ( 0.0000000000000000000, 0.0000000000000000000, 1.000000000000000000 ) ) ;
#292 = APPLICATION_PROTOCOL_DEFINITION ( 'international standard', 'config_control_design', 1994, #6 ) ;
#293 = SHAPE_DEFINITION_REPRESENTATION ( #3, #412 ) ;
#294 = MECHANICAL_CONTEXT ( 'NONE', #6, 'mechanical' ) ;
#295 =( NAMED_UNIT ( * ) SI_UNIT ( $, .STERADIAN. ) SOLID_ANGLE_UNIT ( ) );
#296 =( NAMED_UNIT ( * ) PLANE_ANGLE_UNIT ( ) SI_UNIT ( $, .RADIAN. ) );
#297 =( LENGTH_UNIT ( ) NAMED_UNIT ( * ) SI_UNIT ( .MILLI., .METRE. ) );
#298 = CARTESIAN_POINT ( 'NONE',  ( -3.100000000000000100, 0.0000000000000000000, 0.0000000000000000000 ) ) ;
#299 = CARTESIAN_POINT ( 'NONE',  ( 0.0000000000000000000, 0.0000000000000000000, 0.0000000000000000000 ) ) ;
#300 = CARTESIAN_POINT ( 'NONE',  ( 0.0000000000000000000, 3.100000000000000100, 6.200000000000010800 ) ) ;
#301 = DIRECTION ( 'NONE',  ( 0.0000000000000000000, 3.469446951953613400E-015, -1.000000000000000000 ) ) ;
#302 = CARTESIAN_POINT ( 'NONE',  ( -6.339999999999999900, -6.200000000000048100, 15.19999999999999900 ) ) ;
#303 = ADVANCED_FACE ( 'NONE', ( #162, #39 ), #111, .T. ) ;
#304 = EDGE_CURVE ( 'NONE', #217, #216, #165, .T. ) ;
#305 = ADVANCED_FACE ( 'NONE', ( #164 ), #168, .T. ) ;
#306 = EDGE_CURVE ( 'NONE', #7, #7, #355, .T. ) ;
#307 = EDGE_CURVE ( 'NONE', #206, #218, #171, .T. ) ;
#308 = ADVANCED_FACE ( 'NONE', ( #244 ), #241, .F. ) ;
#309 = EDGE_CURVE ( 'NONE', #212, #215, #128, .T. ) ;
#310 = APPROVAL ( #254, 'UNSPECIFIED' ) ;
#311 = EDGE_CURVE ( 'NONE', #209, #217, #131, .T. ) ;
#312 = EDGE_CURVE ( 'NONE', #212, #209, #130, .T. ) ;
#313 = EDGE_CURVE ( 'NONE', #208, #211, #120, .T. ) ;
#314 = ADVANCED_FACE ( 'NONE', ( #119 ), #115, .F. ) ;
#315 = ADVANCED_FACE ( 'NONE', ( #109, #129 ), #110, .F. ) ;
#316 = EDGE_CURVE ( 'NONE', #223, #208, #102, .T. ) ;
#317 = CC_DESIGN_PERSON_AND_ORGANIZATION_ASSIGNMENT ( #289, #288, ( #413 ) ) ;
#318 = CC_DESIGN_PERSON_AND_ORGANIZATION_ASSIGNMENT ( #266, #265, ( #366 ) ) ;
#319 = PRODUCT_DEFINITION ( 'UNKNOWN', '', #366, #2 ) ;
#320 = APPROVAL ( #285, 'UNSPECIFIED' ) ;
#321 = CC_DESIGN_PERSON_AND_ORGANIZATION_ASSIGNMENT ( #279, #278, ( #319 ) ) ;
#322 = CC_DESIGN_DATE_AND_TIME_ASSIGNMENT ( #275, #274, ( #319 ) ) ;
#323 = APPROVAL ( #272, 'UNSPECIFIED' ) ;
#324 = PRODUCT_RELATED_PRODUCT_CATEGORY ( 'detail', '', ( #413 ) ) ;
#325 = EDGE_CURVE ( 'NONE', #211, #210, #105, .T. ) ;
#326 = ADVANCED_FACE ( 'NONE', ( #98 ), #95, .F. ) ;
#327 = CC_DESIGN_PERSON_AND_ORGANIZATION_ASSIGNMENT ( #264, #263, ( #366 ) ) ;
#328 = CC_DESIGN_PERSON_AND_ORGANIZATION_ASSIGNMENT ( #261, #260, ( #362 ) ) ;
#329 = CC_DESIGN_DATE_AND_TIME_ASSIGNMENT ( #257, #256, ( #362 ) ) ;
#330 = EDGE_CURVE ( 'NONE', #206, #207, #90, .T. ) ;
#331 = EDGE_CURVE ( 'NONE', #211, #207, #88, .T. ) ;
#332 = EDGE_CURVE ( 'NONE', #216, #213, #83, .T. ) ;
#333 = EDGE_CURVE ( 'NONE', #203, #218, #81, .T. ) ;
#334 = EDGE_CURVE ( 'NONE', #206, #210, #78, .T. ) ;
#335 = EDGE_CURVE ( 'NONE', #223, #210, #92, .T. ) ;
#336 = EDGE_CURVE ( 'NONE', #217, #178, #91, .T. ) ;
#337 = ADVANCED_FACE ( 'NONE', ( #74 ), #68, .F. ) ;
#338 = ADVANCED_FACE ( 'NONE', ( #64, #69 ), #63, .F. ) ;
#339 = EDGE_CURVE ( 'NONE', #218, #223, #56, .T. ) ;
#340 = EDGE_CURVE ( 'NONE', #215, #214, #61, .T. ) ;
#341 = ADVANCED_FACE ( 'NONE', ( #59 ), #50, .T. ) ;
#342 = ADVANCED_FACE ( 'NONE', ( #46 ), #45, .T. ) ;
#343 = ADVANCED_FACE ( 'NONE', ( #40, #44 ), #38, .F. ) ;
#344 = ADVANCED_FACE ( 'NONE', ( #34 ), #33, .T. ) ;
#345 = EDGE_CURVE ( 'NONE', #208, #203, #31, .T. ) ;
#346 = EDGE_CURVE ( 'NONE', #178, #212, #41, .T. ) ;
#347 = EDGE_CURVE ( 'NONE', #19, #19, #385, .T. ) ;
#348 = EDGE_CURVE ( 'NONE', #213, #215, #28, .T. ) ;
#349 = EDGE_CURVE ( 'NONE', #214, #216, #15, .T. ) ;
#350 = EDGE_CURVE ( 'NONE', #203, #207, #22, .T. ) ;
#351 = EDGE_CURVE ( 'NONE', #213, #178, #11, .T. ) ;
#352 = EDGE_CURVE ( 'NONE', #214, #209, #8, .T. ) ;
#353 = AXIS2_PLACEMENT_3D ( 'NONE', #247, #57, #163 ) ;
#354 = VECTOR ( 'NONE', #97, 1000.000000000000000 ) ;
#355 = CIRCLE ( 'NONE', #408, 3.100000000000000100 ) ;
#356 = VECTOR ( 'NONE', #124, 1000.000000000000000 ) ;
#357 = CC_DESIGN_SECURITY_CLASSIFICATION ( #362, ( #366 ) ) ;
#358 = CC_DESIGN_APPROVAL ( #310, ( #362 ) ) ;
#359 = LOCAL_TIME ( 15, 52, 17.00000000000000000, #252 ) ;
#360 = APPROVAL_PERSON_ORGANIZATION ( #255, #310, #253 ) ;
#361 = LOCAL_TIME ( 15, 52, 17.00000000000000000, #259 ) ;
#362 = SECURITY_CLASSIFICATION ( '', '', #262 ) ;
#363 = CC_DESIGN_APPROVAL ( #323, ( #366 ) ) ;
#364 = LOCAL_TIME ( 15, 52, 17.00000000000000000, #270 ) ;
#365 = APPROVAL_PERSON_ORGANIZATION ( #273, #323, #271 ) ;
#366 = PRODUCT_DEFINITION_FORMATION_WITH_SPECIFIED_SOURCE ( 'ANY', '', #413, .NOT_KNOWN. ) ;
#367 = LOCAL_TIME ( 15, 52, 17.00000000000000000, #277 ) ;
#368 = CC_DESIGN_APPROVAL ( #320, ( #319 ) ) ;
#369 = LOCAL_TIME ( 15, 52, 17.00000000000000000, #283 ) ;
#370 = APPROVAL_PERSON_ORGANIZATION ( #286, #320, #284 ) ;
#371 = ORGANIZATION ( 'UNSPECIFIED', 'UNSPECIFIED', '' ) ;
#372 = AXIS2_PLACEMENT_3D ( 'NONE', #299, #291, #290 ) ;
#373 =( GEOMETRIC_REPRESENTATION_CONTEXT ( 3 ) GLOBAL_UNCERTAINTY_ASSIGNED_CONTEXT ( ( #4 ) ) GLOBAL_UNIT_ASSIGNED_CONTEXT ( ( #297, #296, #295 ) ) REPRESENTATION_CONTEXT ( 'NONE', 'WORKASPACE' ) );
#374 = VECTOR ( 'NONE', #104, 1000.000000000000000 ) ;
#375 = VECTOR ( 'NONE', #301, 1000.000000000000000 ) ;
#376 = VECTOR ( 'NONE', #9, 1000.000000000000000 ) ;
#377 = VECTOR ( 'NONE', #20, 1000.000000000000000 ) ;
#378 = AXIS2_PLACEMENT_3D ( 'NONE', #16, #18, #21 ) ;
#379 = VECTOR ( 'NONE', #12, 1000.000000000000000 ) ;
#380 = AXIS2_PLACEMENT_3D ( 'NONE', #37, #30, #29 ) ;
#381 = AXIS2_PLACEMENT_3D ( 'NONE', #51, #36, #35 ) ;
#382 = AXIS2_PLACEMENT_3D ( 'NONE', #54, #43, #42 ) ;
#383 = AXIS2_PLACEMENT_3D ( 'NONE', #49, #48, #47 ) ;
#384 = VECTOR ( 'NONE', #23, 1000.000000000000000 ) ;
#385 = CIRCLE ( 'NONE', #378, 3.100000000000000100 ) ;
#386 = AXIS2_PLACEMENT_3D ( 'NONE', #71, #60, #62 ) ;
#387 = AXIS2_PLACEMENT_3D ( 'NONE', #67, #66, #65 ) ;
#388 = VECTOR ( 'NONE', #14, 1000.000000000000000 ) ;
#389 = VECTOR ( 'NONE', #52, 1000.000000000000000 ) ;
#390 = VECTOR ( 'NONE', #58, 1000.000000000000000 ) ;
#391 = VECTOR ( 'NONE', #32, 1000.000000000000000 ) ;
#392 = VECTOR ( 'NONE', #70, 1000.000000000000000 ) ;
#393 = VECTOR ( 'NONE', #76, 1000.000000000000000 ) ;
#394 = VECTOR ( 'NONE', #79, 1000.000000000000000 ) ;
#395 = AXIS2_PLACEMENT_3D ( 'NONE', #96, #94, #93 ) ;
#396 = VECTOR ( 'NONE', #87, 1000.000000000000000 ) ;
#397 = VECTOR ( 'NONE', #73, 1000.000000000000000 ) ;
#398 = AXIS2_PLACEMENT_3D ( 'NONE', #108, #114, #106 ) ;
#399 = AXIS2_PLACEMENT_3D ( 'NONE', #116, #113, #112 ) ;
#400 = VECTOR ( 'NONE', #100, 1000.000000000000000 ) ;
#401 = VECTOR ( 'NONE', #86, 1000.000000000000000 ) ;
#402 = VECTOR ( 'NONE', #84, 1000.000000000000000 ) ;
#403 = VECTOR ( 'NONE', #117, 1000.000000000000000 ) ;
#404 = AXIS2_PLACEMENT_3D ( 'NONE', #172, #133, #132 ) ;
#405 = VECTOR ( 'NONE', #167, 1000.000000000000000 ) ;
#406 = VECTOR ( 'NONE', #121, 1000.000000000000000 ) ;
#407 = CLOSED_SHELL ( 'NONE', ( #343, #305, #342, #308, #337, #326, #341, #338, #344, #314, #303, #315 ) ) ;
#408 = AXIS2_PLACEMENT_3D ( 'NONE', #234, #125, #160 ) ;
#409 = AXIS2_PLACEMENT_3D ( 'NONE', #177, #169, #170 ) ;
#410 = VECTOR ( 'NONE', #123, 1000.000000000000000 ) ;
#411 = PERSON ( 'UNSPECIFIED', 'UNSPECIFIED', 'UNSPECIFIED', ('UNSPECIFIED'), ('UNSPECIFIED'), ('UNSPECIFIED') ) ;
#412 = ADVANCED_BREP_SHAPE_REPRESENTATION ( 'S93515-B_monoblock', ( #1, #372 ), #373 ) ;
#413 = PRODUCT ( 'S93515-B_monoblock', 'S93515-B_monoblock', '', ( #294 ) ) ;
ENDSEC;
END-ISO-10303-21;
