ISO-10303-21;
HEADER;
FILE_DESCRIPTION((''),'2;1');
FILE_NAME('C-16-04978','2018-04-09T',('workeradm'),('TE Connectivity Ltd.'),
'CREO PARAMETRIC BY PTC INC, 2016050','CREO PARAMETRIC BY PTC INC, 2016050','');
FILE_SCHEMA(('AUTOMOTIVE_DESIGN { 1 0 10303 214 1 1 1 1 }'));
ENDSEC;
DATA;
#134=CARTESIAN_POINT('',(0.E0,0.E0,0.E0));
#135=DIRECTION('',(0.E0,0.E0,1.E0));
#136=DIRECTION('',(1.E0,0.E0,0.E0));
#137=AXIS2_PLACEMENT_3D('',#134,#135,#136);
#139=CARTESIAN_POINT('',(0.E0,0.E0,0.E0));
#140=DIRECTION('',(0.E0,0.E0,1.E0));
#141=DIRECTION('',(-1.E0,0.E0,0.E0));
#142=AXIS2_PLACEMENT_3D('',#139,#140,#141);
#144=DIRECTION('',(1.E0,0.E0,0.E0));
#145=VECTOR('',#144,2.409328912706E1);
#146=CARTESIAN_POINT('',(-1.204664456353E1,1.47574E1,0.E0));
#147=LINE('',#146,#145);
#148=CARTESIAN_POINT('',(0.E0,0.E0,0.E0));
#149=DIRECTION('',(0.E0,0.E0,-1.E0));
#150=DIRECTION('',(6.323697933611E-1,7.746666666667E-1,0.E0));
#151=AXIS2_PLACEMENT_3D('',#148,#149,#150);
#153=DIRECTION('',(0.E0,0.E0,-1.E0));
#154=VECTOR('',#153,3.175E0);
#155=CARTESIAN_POINT('',(2.25E1,0.E0,0.E0));
#156=LINE('',#155,#154);
#157=DIRECTION('',(0.E0,0.E0,-1.E0));
#158=VECTOR('',#157,3.175E0);
#159=CARTESIAN_POINT('',(-2.25E1,0.E0,0.E0));
#160=LINE('',#159,#158);
#161=CARTESIAN_POINT('',(0.E0,0.E0,-3.175E0));
#162=DIRECTION('',(0.E0,0.E0,1.E0));
#163=DIRECTION('',(1.E0,0.E0,0.E0));
#164=AXIS2_PLACEMENT_3D('',#161,#162,#163);
#166=CARTESIAN_POINT('',(0.E0,0.E0,-3.175E0));
#167=DIRECTION('',(0.E0,0.E0,1.E0));
#168=DIRECTION('',(-1.E0,0.E0,0.E0));
#169=AXIS2_PLACEMENT_3D('',#166,#167,#168);
#171=DIRECTION('',(1.E0,0.E0,0.E0));
#172=VECTOR('',#171,2.409328912706E1);
#173=CARTESIAN_POINT('',(-1.204664456353E1,1.47574E1,-3.175E0));
#174=LINE('',#173,#172);
#175=CARTESIAN_POINT('',(0.E0,0.E0,-3.175E0));
#176=DIRECTION('',(0.E0,0.E0,-1.E0));
#177=DIRECTION('',(6.323697933611E-1,7.746666666667E-1,0.E0));
#178=AXIS2_PLACEMENT_3D('',#175,#176,#177);
#180=DIRECTION('',(0.E0,0.E0,-1.E0));
#181=VECTOR('',#180,3.175E0);
#182=CARTESIAN_POINT('',(-1.204664456353E1,1.47574E1,0.E0));
#183=LINE('',#182,#181);
#184=DIRECTION('',(0.E0,0.E0,-1.E0));
#185=VECTOR('',#184,3.175E0);
#186=CARTESIAN_POINT('',(1.204664456353E1,1.47574E1,0.E0));
#187=LINE('',#186,#185);
#188=CARTESIAN_POINT('',(2.25E1,0.E0,0.E0));
#189=CARTESIAN_POINT('',(-2.25E1,0.E0,0.E0));
#190=VERTEX_POINT('',#188);
#191=VERTEX_POINT('',#189);
#192=CARTESIAN_POINT('',(2.25E1,0.E0,-3.175E0));
#193=CARTESIAN_POINT('',(-2.25E1,0.E0,-3.175E0));
#194=VERTEX_POINT('',#192);
#195=VERTEX_POINT('',#193);
#196=CARTESIAN_POINT('',(-1.204664456353E1,1.47574E1,0.E0));
#197=CARTESIAN_POINT('',(1.204664456353E1,1.47574E1,0.E0));
#198=VERTEX_POINT('',#196);
#199=VERTEX_POINT('',#197);
#200=CARTESIAN_POINT('',(-1.204664456353E1,1.47574E1,-3.175E0));
#201=CARTESIAN_POINT('',(1.204664456353E1,1.47574E1,-3.175E0));
#202=VERTEX_POINT('',#200);
#203=VERTEX_POINT('',#201);
#204=CARTESIAN_POINT('',(0.E0,0.E0,0.E0));
#205=DIRECTION('',(0.E0,0.E0,1.E0));
#206=DIRECTION('',(1.E0,0.E0,0.E0));
#207=AXIS2_PLACEMENT_3D('',#204,#205,#206);
#208=PLANE('',#207);
#210=ORIENTED_EDGE('',*,*,#209,.F.);
#212=ORIENTED_EDGE('',*,*,#211,.F.);
#213=EDGE_LOOP('',(#210,#212));
#214=FACE_OUTER_BOUND('',#213,.F.);
#216=ORIENTED_EDGE('',*,*,#215,.F.);
#218=ORIENTED_EDGE('',*,*,#217,.F.);
#219=EDGE_LOOP('',(#216,#218));
#220=FACE_BOUND('',#219,.F.);
#222=CARTESIAN_POINT('',(0.E0,0.E0,0.E0));
#223=DIRECTION('',(0.E0,0.E0,1.E0));
#224=DIRECTION('',(1.E0,0.E0,0.E0));
#225=AXIS2_PLACEMENT_3D('',#222,#223,#224);
#226=CYLINDRICAL_SURFACE('',#225,2.25E1);
#227=ORIENTED_EDGE('',*,*,#209,.T.);
#229=ORIENTED_EDGE('',*,*,#228,.T.);
#231=ORIENTED_EDGE('',*,*,#230,.F.);
#233=ORIENTED_EDGE('',*,*,#232,.F.);
#234=EDGE_LOOP('',(#227,#229,#231,#233));
#235=FACE_OUTER_BOUND('',#234,.F.);
#237=CARTESIAN_POINT('',(0.E0,0.E0,0.E0));
#238=DIRECTION('',(0.E0,0.E0,1.E0));
#239=DIRECTION('',(1.E0,0.E0,0.E0));
#240=AXIS2_PLACEMENT_3D('',#237,#238,#239);
#241=CYLINDRICAL_SURFACE('',#240,2.25E1);
#242=ORIENTED_EDGE('',*,*,#211,.T.);
#243=ORIENTED_EDGE('',*,*,#232,.T.);
#245=ORIENTED_EDGE('',*,*,#244,.F.);
#246=ORIENTED_EDGE('',*,*,#228,.F.);
#247=EDGE_LOOP('',(#242,#243,#245,#246));
#248=FACE_OUTER_BOUND('',#247,.F.);
#250=CARTESIAN_POINT('',(0.E0,0.E0,-3.175E0));
#251=DIRECTION('',(0.E0,0.E0,1.E0));
#252=DIRECTION('',(1.E0,0.E0,0.E0));
#253=AXIS2_PLACEMENT_3D('',#250,#251,#252);
#254=PLANE('',#253);
#255=ORIENTED_EDGE('',*,*,#230,.T.);
#256=ORIENTED_EDGE('',*,*,#244,.T.);
#257=EDGE_LOOP('',(#255,#256));
#258=FACE_OUTER_BOUND('',#257,.F.);
#260=ORIENTED_EDGE('',*,*,#259,.T.);
#262=ORIENTED_EDGE('',*,*,#261,.T.);
#263=EDGE_LOOP('',(#260,#262));
#264=FACE_BOUND('',#263,.F.);
#266=CARTESIAN_POINT('',(-1.204664456353E1,1.47574E1,0.E0));
#267=DIRECTION('',(0.E0,-1.E0,0.E0));
#268=DIRECTION('',(1.E0,0.E0,0.E0));
#269=AXIS2_PLACEMENT_3D('',#266,#267,#268);
#270=PLANE('',#269);
#271=ORIENTED_EDGE('',*,*,#215,.T.);
#273=ORIENTED_EDGE('',*,*,#272,.T.);
#274=ORIENTED_EDGE('',*,*,#259,.F.);
#276=ORIENTED_EDGE('',*,*,#275,.F.);
#277=EDGE_LOOP('',(#271,#273,#274,#276));
#278=FACE_OUTER_BOUND('',#277,.F.);
#280=CARTESIAN_POINT('',(0.E0,0.E0,0.E0));
#281=DIRECTION('',(0.E0,0.E0,1.E0));
#282=DIRECTION('',(1.E0,0.E0,0.E0));
#283=AXIS2_PLACEMENT_3D('',#280,#281,#282);
#284=CYLINDRICAL_SURFACE('',#283,1.905E1);
#285=ORIENTED_EDGE('',*,*,#217,.T.);
#286=ORIENTED_EDGE('',*,*,#275,.T.);
#287=ORIENTED_EDGE('',*,*,#261,.F.);
#288=ORIENTED_EDGE('',*,*,#272,.F.);
#289=EDGE_LOOP('',(#285,#286,#287,#288));
#290=FACE_OUTER_BOUND('',#289,.F.);
#292=CLOSED_SHELL('',(#221,#236,#249,#265,#279,#291));
#293=MANIFOLD_SOLID_BREP('',#292);
#296=PLANE_ANGLE_MEASURE_WITH_UNIT(PLANE_ANGLE_MEASURE(1.745329251994E-2),#295);
#297=(CONVERSION_BASED_UNIT('DEGREE',#296)NAMED_UNIT(*)PLANE_ANGLE_UNIT());
#299=UNCERTAINTY_MEASURE_WITH_UNIT(LENGTH_MEASURE(1.E-3),#294,
'distance_accuracy_value',
'Maximum model space distance between geometric entities at asserted connectivities');
#302=APPLICATION_CONTEXT('automotive_design');
#303=APPLICATION_PROTOCOL_DEFINITION('international standard',
'automotive_design',2001,#302);
#304=PRODUCT_DEFINITION_CONTEXT('part definition',#302,'design');
#305=PRODUCT_CONTEXT('',#302,'mechanical');
#306=PRODUCT('C-16-04978','C-16-04978','NOT SPECIFIED',(#305));
#307=PRODUCT_DEFINITION_FORMATION('1','LAST_VERSION',#306);
#315=DERIVED_UNIT_ELEMENT(#314,2.E0);
#316=DERIVED_UNIT((#315));
#317=MEASURE_REPRESENTATION_ITEM('surface area measure',AREA_MEASURE(
1.864583359167E3),#316);
#322=DERIVED_UNIT_ELEMENT(#321,3.E0);
#323=DERIVED_UNIT((#322));
#324=MEASURE_REPRESENTATION_ITEM('volume measure',VOLUME_MEASURE(
1.654201809080E3),#323);
#328=CARTESIAN_POINT('centre point',(-7.395028279379E-9,2.236980859659E0,
-1.5875E0));
#333=DERIVED_UNIT_ELEMENT(#332,2.E0);
#334=DERIVED_UNIT((#333));
#335=MEASURE_REPRESENTATION_ITEM('surface area measure',AREA_MEASURE(
1.864583359167E3),#334);
#340=DERIVED_UNIT_ELEMENT(#339,3.E0);
#341=DERIVED_UNIT((#340));
#342=MEASURE_REPRESENTATION_ITEM('volume measure',VOLUME_MEASURE(
1.654201809080E3),#341);
#346=CARTESIAN_POINT('centre point',(-7.395028279379E-9,2.236980859659E0,
-1.5875E0));
#351=PRODUCT_RELATED_PRODUCT_CATEGORY('part','',(#306));
#1=DRAUGHTING_PRE_DEFINED_COLOUR('black');
#2=COLOUR_RGB('',0.E0,0.E0,3.6E-1);
#3=COLOUR_RGB('',0.E0,0.E0,4.8E-1);
#4=DRAUGHTING_PRE_DEFINED_COLOUR('blue');
#5=COLOUR_RGB('',0.E0,5.8824E-2,4.58824E-1);
#6=COLOUR_RGB('',0.E0,1.80392E-1,4.78431E-1);
#7=COLOUR_RGB('',0.E0,3.6E-1,9.E-2);
#8=COLOUR_RGB('',0.E0,3.6E-1,2.7E-1);
#9=COLOUR_RGB('',0.E0,5.6E-1,6.4E-1);
#10=COLOUR_RGB('',0.E0,5.8E-1,8.E-1);
#11=COLOUR_RGB('',0.E0,7.1E-1,6.6E-1);
#12=COLOUR_RGB('',0.E0,7.13E-1,0.E0);
#13=COLOUR_RGB('',0.E0,9.5E-1,8.4E-1);
#14=DRAUGHTING_PRE_DEFINED_COLOUR('green');
#15=DRAUGHTING_PRE_DEFINED_COLOUR('cyan');
#16=COLOUR_RGB('',1.1765E-2,1.9608E-2,3.9216E-2);
#17=COLOUR_RGB('',4.E-2,0.E0,1.6E-1);
#18=COLOUR_RGB('',3.9216E-2,2.19608E-1,1.21569E-1);
#19=COLOUR_RGB('',3.9216E-2,3.60784E-1,2.E-1);
#20=COLOUR_RGB('',5.098E-2,7.0588E-2,1.01961E-1);
#21=COLOUR_RGB('',9.E-2,0.E0,1.2E-1);
#22=COLOUR_RGB('',9.0196E-2,1.60784E-1,1.09804E-1);
#23=COLOUR_RGB('',9.0196E-2,3.80392E-1,6.70588E-1);
#24=COLOUR_RGB('',1.E-1,0.E0,2.5E-1);
#25=COLOUR_RGB('',1.01961E-1,4.78431E-1,3.88235E-1);
#26=COLOUR_RGB('',1.09804E-1,1.4902E-1,9.0196E-2);
#27=COLOUR_RGB('',1.4902E-1,3.09804E-1,5.29412E-1);
#28=COLOUR_RGB('',1.4902E-1,4.E-1,1.60784E-1);
#29=COLOUR_RGB('',1.6E-1,3.2E-2,0.E0);
#30=COLOUR_RGB('',1.60784E-1,4.5098E-1,7.21569E-1);
#31=COLOUR_RGB('',1.6E-1,4.6E-1,6.5E-1);
#32=COLOUR_RGB('',1.6E-1,1.E0,1.6E-1);
#33=COLOUR_RGB('',2.E-1,3.2E-2,0.E0);
#34=COLOUR_RGB('',2.11765E-1,4.11765E-1,1.4902E-1);
#35=COLOUR_RGB('',2.39216E-1,2.39216E-1,2.31373E-1);
#36=COLOUR_RGB('',2.39216E-1,2.70588E-1,1.80392E-1);
#37=COLOUR_RGB('',2.5098E-1,2.90196E-1,3.29412E-1);
#38=COLOUR_RGB('',2.90196E-1,4.31373E-1,2.E-1);
#39=COLOUR_RGB('',3.1E-1,3.1E-1,5.6E-1);
#40=COLOUR_RGB('',3.09804E-1,6.58824E-1,2.E-1);
#41=COLOUR_RGB('',3.2E-1,1.5E-1,0.E0);
#42=COLOUR_RGB('',3.60784E-1,3.1373E-2,1.68627E-1);
#43=COLOUR_RGB('',3.68627E-1,2.E-1,1.21569E-1);
#44=COLOUR_RGB('',3.88235E-1,2.39216E-1,6.11765E-1);
#45=COLOUR_RGB('',4.E-1,4.E-1,4.E-1);
#46=COLOUR_RGB('',4.11765E-1,5.8824E-2,7.8431E-2);
#47=COLOUR_RGB('',4.11765E-1,3.29412E-1,2.19608E-1);
#48=COLOUR_RGB('',4.2E-1,4.2E-1,1.E0);
#49=COLOUR_RGB('',4.4E-1,8.5E-1,1.E0);
#50=COLOUR_RGB('',4.58824E-1,4.5098E-1,3.09804E-1);
#51=COLOUR_RGB('',4.70588E-1,5.09804E-1,5.4902E-1);
#52=COLOUR_RGB('',4.78431E-1,4.90196E-1,4.58824E-1);
#53=COLOUR_RGB('',4.90196E-1,3.60784E-1,2.19608E-1);
#54=COLOUR_RGB('',4.9E-1,4.9E-1,0.E0);
#55=COLOUR_RGB('',4.9E-1,1.E0,0.E0);
#56=COLOUR_RGB('',5.E-1,0.E0,0.E0);
#57=COLOUR_RGB('',5.E-1,0.E0,2.3E-1);
#58=COLOUR_RGB('',5.E-1,5.E-1,5.E-1);
#59=COLOUR_RGB('',5.21569E-1,2.19608E-1,1.68627E-1);
#60=COLOUR_RGB('',5.3E-1,0.E0,0.E0);
#61=COLOUR_RGB('',5.29412E-1,5.80392E-1,6.5098E-1);
#62=COLOUR_RGB('',5.4E-1,0.E0,4.4E-1);
#63=COLOUR_RGB('',5.5E-1,3.E-1,0.E0);
#64=COLOUR_RGB('',5.6E-1,1.E-1,5.E-2);
#65=COLOUR_RGB('',5.60784E-1,5.80392E-1,6.19608E-1);
#66=COLOUR_RGB('',5.68627E-1,5.8824E-2,4.E-1);
#67=COLOUR_RGB('',5.8E-1,2.2E-1,1.E-2);
#68=COLOUR_RGB('',5.88235E-1,1.21569E-1,1.09804E-1);
#69=COLOUR_RGB('',6.E-1,6.E-1,6.E-1);
#70=COLOUR_RGB('',6.11765E-1,5.60784E-1,3.80392E-1);
#71=COLOUR_RGB('',6.11765E-1,6.11765E-1,6.5098E-1);
#72=COLOUR_RGB('',6.2E-1,0.E0,5.5E-1);
#73=COLOUR_RGB('',6.19608E-1,6.39216E-1,6.90196E-1);
#74=COLOUR_RGB('',6.4E-1,0.E0,2.5E-1);
#75=COLOUR_RGB('',6.4E-1,1.E-2,0.E0);
#76=COLOUR_RGB('',6.39216E-1,5.4902E-1,4.78431E-1);
#77=COLOUR_RGB('',6.5098E-1,6.70588E-1,7.09804E-1);
#78=COLOUR_RGB('',6.70588E-1,1.21569E-1,1.09804E-1);
#79=COLOUR_RGB('',6.78431E-1,4.78431E-1,3.09804E-1);
#80=COLOUR_RGB('',6.8E-1,7.5E-1,1.E0);
#81=COLOUR_RGB('',6.952E-1,7.426E-1,7.9E-1);
#82=COLOUR_RGB('',7.09804E-1,7.0588E-2,2.E-1);
#83=COLOUR_RGB('',7.1E-1,3.1E-1,0.E0);
#84=COLOUR_RGB('',7.2E-1,7.2E-1,7.2E-1);
#85=COLOUR_RGB('',7.29412E-1,7.41176E-1,7.29412E-1);
#86=COLOUR_RGB('',7.41176E-1,7.29412E-1,6.70588E-1);
#87=COLOUR_RGB('',7.4E-1,1.E0,2.6E-1);
#88=COLOUR_RGB('',7.5E-1,3.E-2,0.E0);
#89=COLOUR_RGB('',7.4902E-1,8.90196E-1,7.29412E-1);
#90=COLOUR_RGB('',7.6E-1,0.E0,4.7E-1);
#91=COLOUR_RGB('',7.80392E-1,9.0196E-2,7.0588E-2);
#92=COLOUR_RGB('',7.88235E-1,2.19608E-1,5.4902E-1);
#93=COLOUR_RGB('',8.1E-1,4.E-2,0.E0);
#94=COLOUR_RGB('',8.1E-1,6.1E-1,0.E0);
#95=COLOUR_RGB('',8.2E-1,4.E-2,6.6E-1);
#96=COLOUR_RGB('',8.31373E-1,8.5098E-1,8.58824E-1);
#97=COLOUR_RGB('',8.5098E-1,7.29412E-1,5.4902E-1);
#98=COLOUR_RGB('',8.5E-1,8.5E-1,8.5E-1);
#99=COLOUR_RGB('',8.78431E-1,3.68627E-1,1.21569E-1);
#100=COLOUR_RGB('',8.784E-1,9.49E-1,1.E0);
#101=COLOUR_RGB('',8.90196E-1,5.88235E-1,1.41176E-1);
#102=COLOUR_RGB('',9.E-1,1.E0,0.E0);
#103=COLOUR_RGB('',9.09804E-1,6.11765E-1,7.09804E-1);
#104=COLOUR_RGB('',9.37E-1,7.85E-1,0.E0);
#105=COLOUR_RGB('',9.41176E-1,9.29412E-1,9.01961E-1);
#106=COLOUR_RGB('',9.5E-1,2.2E-1,8.1E-1);
#107=COLOUR_RGB('',9.6E-1,3.7E-1,3.E-1);
#108=COLOUR_RGB('',9.6E-1,7.1E-1,3.75E-1);
#109=COLOUR_RGB('',9.80392E-1,1.E0,1.E0);
#110=COLOUR_RGB('',9.88235E-1,1.09804E-1,7.8431E-2);
#111=COLOUR_RGB('',9.88235E-1,7.21569E-1,1.29412E-1);
#112=COLOUR_RGB('',9.88235E-1,9.21569E-1,8.E-1);
#113=DRAUGHTING_PRE_DEFINED_COLOUR('red');
#114=COLOUR_RGB('',1.E0,0.E0,6.1E-1);
#115=COLOUR_RGB('',1.E0,4.E-2,0.E0);
#116=COLOUR_RGB('',1.E0,2.3E-1,0.E0);
#117=COLOUR_RGB('',1.E0,3.5E-1,5.2E-1);
#118=COLOUR_RGB('',1.E0,3.6E-1,0.E0);
#119=COLOUR_RGB('',1.E0,3.88235E-1,2.11765E-1);
#120=COLOUR_RGB('',1.E0,4.9E-1,3.7E-1);
#121=COLOUR_RGB('',1.E0,5.E-1,0.E0);
#122=COLOUR_RGB('',1.E0,5.6E-1,7.8E-1);
#123=COLOUR_RGB('',1.E0,6.4E-1,4.9E-1);
#124=COLOUR_RGB('',1.E0,6.7E-1,0.E0);
#125=COLOUR_RGB('',1.E0,7.6E-1,6.5E-1);
#126=COLOUR_RGB('',1.E0,8.39216E-1,3.01961E-1);
#127=COLOUR_RGB('',1.E0,8.6E-1,4.E-2);
#128=COLOUR_RGB('',1.E0,9.60784E-1,2.58824E-1);
#129=COLOUR_RGB('',1.E0,9.60784E-1,8.90196E-1);
#130=COLOUR_RGB('',1.E0,9.8E-1,7.2E-1);
#131=DRAUGHTING_PRE_DEFINED_COLOUR('yellow');
#132=COLOUR_RGB('',1.E0,1.E0,3.9216E-2);
#133=DRAUGHTING_PRE_DEFINED_COLOUR('white');
#138=CIRCLE('',#137,2.25E1);
#143=CIRCLE('',#142,2.25E1);
#152=CIRCLE('',#151,1.905E1);
#165=CIRCLE('',#164,2.25E1);
#170=CIRCLE('',#169,2.25E1);
#179=CIRCLE('',#178,1.905E1);
#209=EDGE_CURVE('',#190,#191,#138,.T.);
#211=EDGE_CURVE('',#191,#190,#143,.T.);
#215=EDGE_CURVE('',#198,#199,#147,.T.);
#217=EDGE_CURVE('',#199,#198,#152,.T.);
#221=ADVANCED_FACE('',(#214,#220),#208,.T.);
#228=EDGE_CURVE('',#191,#195,#160,.T.);
#230=EDGE_CURVE('',#194,#195,#165,.T.);
#232=EDGE_CURVE('',#190,#194,#156,.T.);
#236=ADVANCED_FACE('',(#235),#226,.T.);
#244=EDGE_CURVE('',#195,#194,#170,.T.);
#249=ADVANCED_FACE('',(#248),#241,.T.);
#259=EDGE_CURVE('',#202,#203,#174,.T.);
#261=EDGE_CURVE('',#203,#202,#179,.T.);
#265=ADVANCED_FACE('',(#258,#264),#254,.F.);
#272=EDGE_CURVE('',#199,#203,#187,.T.);
#275=EDGE_CURVE('',#198,#202,#183,.T.);
#279=ADVANCED_FACE('',(#278),#270,.T.);
#291=ADVANCED_FACE('',(#290),#284,.F.);
#294=(LENGTH_UNIT()NAMED_UNIT(*)SI_UNIT(.MILLI.,.METRE.));
#295=(NAMED_UNIT(*)PLANE_ANGLE_UNIT()SI_UNIT($,.RADIAN.));
#298=(NAMED_UNIT(*)SI_UNIT($,.STERADIAN.)SOLID_ANGLE_UNIT());
#300=(GEOMETRIC_REPRESENTATION_CONTEXT(3)GLOBAL_UNCERTAINTY_ASSIGNED_CONTEXT((
#299))GLOBAL_UNIT_ASSIGNED_CONTEXT((#294,#297,#298))REPRESENTATION_CONTEXT
('ID1','3'));
#301=ADVANCED_BREP_SHAPE_REPRESENTATION('',(#293),#300);
#308=PRODUCT_DEFINITION('part definition','',#307,#304);
#309=PRODUCT_DEFINITION_SHAPE('','SHAPE FOR C-16-04978.',#308);
#310=SHAPE_ASPECT('','solid data associated with C-16-04978',#309,.F.);
#311=PROPERTY_DEFINITION('',
'shape for solid data with which properties are associated',#310);
#312=SHAPE_REPRESENTATION('',(#293),#300);
#313=SHAPE_DEFINITION_REPRESENTATION(#311,#312);
#314=(LENGTH_UNIT()NAMED_UNIT(*)SI_UNIT(.MILLI.,.METRE.));
#318=PROPERTY_DEFINITION('geometric validation property','area of C-16-04978',
#310);
#319=REPRESENTATION('surface area',(#317),#300);
#320=PROPERTY_DEFINITION_REPRESENTATION(#318,#319);
#321=(LENGTH_UNIT()NAMED_UNIT(*)SI_UNIT(.MILLI.,.METRE.));
#325=PROPERTY_DEFINITION('geometric validation property','volume of C-16-04978',
#310);
#326=REPRESENTATION('volume',(#324),#300);
#327=PROPERTY_DEFINITION_REPRESENTATION(#325,#326);
#329=PROPERTY_DEFINITION('geometric validation property',
'centroid of C-16-04978',#310);
#330=REPRESENTATION('centroid',(#328),#300);
#331=PROPERTY_DEFINITION_REPRESENTATION(#329,#330);
#332=(LENGTH_UNIT()NAMED_UNIT(*)SI_UNIT(.MILLI.,.METRE.));
#336=PROPERTY_DEFINITION('geometric validation property','area of C-16-04978',
#309);
#337=REPRESENTATION('surface area',(#335),#300);
#338=PROPERTY_DEFINITION_REPRESENTATION(#336,#337);
#339=(LENGTH_UNIT()NAMED_UNIT(*)SI_UNIT(.MILLI.,.METRE.));
#343=PROPERTY_DEFINITION('geometric validation property','volume of C-16-04978',
#309);
#344=REPRESENTATION('volume',(#342),#300);
#345=PROPERTY_DEFINITION_REPRESENTATION(#343,#344);
#347=PROPERTY_DEFINITION('geometric validation property',
'centroid of C-16-04978',#309);
#348=REPRESENTATION('centroid',(#346),#300);
#349=PROPERTY_DEFINITION_REPRESENTATION(#347,#348);
#350=SHAPE_DEFINITION_REPRESENTATION(#309,#301);
ENDSEC;
END-ISO-10303-21;
