ISO-10303-21;
HEADER;
FILE_DESCRIPTION(('STEP AP214'),'1');
FILE_NAME('12 SIZE CODE G-L.stp','2020-10-30T02:59:11',(' '),(' '),'Spatial InterOp 3D',' ',' ');
FILE_SCHEMA(('AUTOMOTIVE_DESIGN { 1 0 10303 214 1 1 1 1 }'));
ENDSEC;
DATA;
#1=PRODUCT_DEFINITION_CONTEXT('',#16,'design');
#2=APPLICATION_PROTOCOL_DEFINITION('INTERNATIONAL STANDARD','automotive_design',1994,#16);
#3=PRODUCT_CATEGORY_RELATIONSHIP('NONE','NONE',#17,#18);
#4=SHAPE_DEFINITION_REPRESENTATION(#19,#20);
#5=PRODUCT_DEFINITION_CONTEXT('',#21,'design');
#6=APPLICATION_PROTOCOL_DEFINITION('INTERNATIONAL STANDARD','automotive_design',1994,#21);
#7=PRODUCT_CATEGORY_RELATIONSHIP('NONE','NONE',#22,#23);
#8=CONTEXT_DEPENDENT_SHAPE_REPRESENTATION(#24,#25);
#9=SHAPE_DEFINITION_REPRESENTATION(#26,#27);
#10=SHAPE_REPRESENTATION_RELATIONSHIP('NONE','NONE',#27,#28);
#11=MECHANICAL_DESIGN_GEOMETRIC_PRESENTATION_REPRESENTATION(' ',(#29),#12);
#12= (GEOMETRIC_REPRESENTATION_CONTEXT(3)GLOBAL_UNCERTAINTY_ASSIGNED_CONTEXT((#32))GLOBAL_UNIT_ASSIGNED_CONTEXT((#34,#35,#36))REPRESENTATION_CONTEXT('NONE','WORKSPACE'));
#16=APPLICATION_CONTEXT(' ');
#17=PRODUCT_CATEGORY('part','NONE');
#18=PRODUCT_RELATED_PRODUCT_CATEGORY('detail',' ',(#38));
#19=PRODUCT_DEFINITION_SHAPE('NONE','NONE',#39);
#20=SHAPE_REPRESENTATION('\X2\03A6\X0\12 SIZE CODE G-L',(#40,#41),#42);
#21=APPLICATION_CONTEXT(' ');
#22=PRODUCT_CATEGORY('part','NONE');
#23=PRODUCT_RELATED_PRODUCT_CATEGORY('detail',' ',(#43));
#24=(REPRESENTATION_RELATIONSHIP('','',#27,#20)REPRESENTATION_RELATIONSHIP_WITH_TRANSFORMATION(#46)SHAPE_REPRESENTATION_RELATIONSHIP());
#25=PRODUCT_DEFINITION_SHAPE('NAUO-PROD-DEF','NAUO-PROD-DEF',#48);
#26=PRODUCT_DEFINITION_SHAPE('NONE','NONE',#49);
#27=SHAPE_REPRESENTATION('G12',(#40),#42);
#28=ADVANCED_BREP_SHAPE_REPRESENTATION('G12',(#50),#12);
#29=STYLED_ITEM('',(#51),#50);
#32=UNCERTAINTY_MEASURE_WITH_UNIT(LENGTH_MEASURE(1.0E-05),#34,'','');
#34= (CONVERSION_BASED_UNIT('MILLIMETRE',#54)LENGTH_UNIT()NAMED_UNIT(#57));
#35= (NAMED_UNIT(#59)PLANE_ANGLE_UNIT()SI_UNIT($,.RADIAN.));
#36= (NAMED_UNIT(#59)SOLID_ANGLE_UNIT()SI_UNIT($,.STERADIAN.));
#38=PRODUCT('\X2\03A6\X0\12 SIZE CODE G-L','\X2\03A6\X0\12 SIZE CODE G-L','PART--DESC',(#65));
#39=PRODUCT_DEFINITION('\X2\03A6\X0\12 SIZE CODE G-L','\X2\03A6\X0\12 SIZE CODE G-L',#66,#1);
#40=AXIS2_PLACEMENT_3D('',#67,#68,#69);
#41=AXIS2_PLACEMENT_3D('',#70,#71,#72);
#42= (GEOMETRIC_REPRESENTATION_CONTEXT(3)GLOBAL_UNCERTAINTY_ASSIGNED_CONTEXT((#75))GLOBAL_UNIT_ASSIGNED_CONTEXT((#77,#78,#79))REPRESENTATION_CONTEXT('NONE','WORKSPACE'));
#43=PRODUCT('G12','G12','PART-G12-DESC',(#81));
#46=ITEM_DEFINED_TRANSFORMATION('','',#40,#41);
#48=NEXT_ASSEMBLY_USAGE_OCCURRENCE('G12','G12','G12',#39,#49,$);
#49=PRODUCT_DEFINITION('G12','G12',#82,#5);
#50=MANIFOLD_SOLID_BREP('G12',#83);
#51=PRESENTATION_STYLE_ASSIGNMENT((#84));
#54=LENGTH_MEASURE_WITH_UNIT(LENGTH_MEASURE(1.0),#85);
#57=DIMENSIONAL_EXPONENTS(1.0,0.0,0.0,0.0,0.0,0.0,0.0);
#59=DIMENSIONAL_EXPONENTS(0.0,0.0,0.0,0.0,0.0,0.0,0.0);
#65=PRODUCT_CONTEXT('',#16,'mechanical');
#66=PRODUCT_DEFINITION_FORMATION_WITH_SPECIFIED_SOURCE(' ','NONE',#38,.NOT_KNOWN.);
#67=CARTESIAN_POINT('',(0.0,0.0,0.0));
#68=DIRECTION('',(0.0,0.0,1.0));
#69=DIRECTION('',(1.0,0.0,0.0));
#70=CARTESIAN_POINT('',(0.0,0.0,0.0));
#71=DIRECTION('',(0.0,0.0,1.0));
#72=DIRECTION('',(1.0,0.0,0.0));
#75=UNCERTAINTY_MEASURE_WITH_UNIT(LENGTH_MEASURE(1.0E-05),#77,'','');
#77= (CONVERSION_BASED_UNIT('MILLIMETRE',#88)LENGTH_UNIT()NAMED_UNIT(#91));
#78= (NAMED_UNIT(#93)PLANE_ANGLE_UNIT()SI_UNIT($,.RADIAN.));
#79= (NAMED_UNIT(#93)SOLID_ANGLE_UNIT()SI_UNIT($,.STERADIAN.));
#81=PRODUCT_CONTEXT('',#21,'mechanical');
#82=PRODUCT_DEFINITION_FORMATION_WITH_SPECIFIED_SOURCE(' ','NONE',#43,.NOT_KNOWN.);
#83=CLOSED_SHELL('',(#99,#100,#101,#102,#103,#104,#105,#106,#107,#108,#109,#110,#111,#112,#113,#114,#115,#116,#117,#118,#119));
#84=SURFACE_STYLE_USAGE(.BOTH.,#120);
#85= (NAMED_UNIT(#57)LENGTH_UNIT()SI_UNIT(.MILLI.,.METRE.));
#88=LENGTH_MEASURE_WITH_UNIT(LENGTH_MEASURE(1.0),#122);
#91=DIMENSIONAL_EXPONENTS(1.0,0.0,0.0,0.0,0.0,0.0,0.0);
#93=DIMENSIONAL_EXPONENTS(0.0,0.0,0.0,0.0,0.0,0.0,0.0);
#99=ADVANCED_FACE('0:4605',(#123),#124,.T.);
#100=ADVANCED_FACE('1:7448',(#125,#126),#127,.T.);
#101=ADVANCED_FACE('1:7439',(#128,#129),#130,.T.);
#102=ADVANCED_FACE('0:4644',(#131),#132,.T.);
#103=ADVANCED_FACE('1:7404',(#133,#134),#135,.T.);
#104=ADVANCED_FACE('1:7395',(#136,#137),#138,.T.);
#105=ADVANCED_FACE('3:3594',(#139,#140),#141,.T.);
#106=ADVANCED_FACE('3:3618',(#142,#143),#144,.T.);
#107=ADVANCED_FACE('3:3636',(#145,#146),#147,.F.);
#108=ADVANCED_FACE('3:3633',(#148,#149),#150,.T.);
#109=ADVANCED_FACE('3:3630',(#151,#152),#153,.F.);
#110=ADVANCED_FACE('3:3627',(#154,#155),#156,.T.);
#111=ADVANCED_FACE('3:3624',(#157,#158),#159,.T.);
#112=ADVANCED_FACE('3:3612',(#160,#161),#162,.T.);
#113=ADVANCED_FACE('3:3606',(#163,#164,#165),#166,.T.);
#114=ADVANCED_FACE('3:6709',(#167,#168,#169,#170),#171,.T.);
#115=ADVANCED_FACE('3:2917',(#172,#173),#174,.T.);
#116=ADVANCED_FACE('3:2920',(#175),#176,.T.);
#117=ADVANCED_FACE('3:2932',(#177),#178,.T.);
#118=ADVANCED_FACE('4:224',(#179,#180),#181,.T.);
#119=ADVANCED_FACE('4:244',(#182,#183),#184,.T.);
#120=SURFACE_SIDE_STYLE('',(#185));
#122= (NAMED_UNIT(#91)LENGTH_UNIT()SI_UNIT(.MILLI.,.METRE.));
#123=FACE_OUTER_BOUND('',#187,.T.);
#124=PLANE('',#188);
#125=FACE_BOUND('',#189,.T.);
#126=FACE_BOUND('',#190,.T.);
#127=CYLINDRICAL_SURFACE('',#191,0.4);
#128=FACE_BOUND('',#192,.T.);
#129=FACE_BOUND('',#193,.T.);
#130=TOROIDAL_SURFACE('',#194,-1.23234383845561,2.10924647123947);
#131=FACE_OUTER_BOUND('',#195,.T.);
#132=PLANE('',#196);
#133=FACE_BOUND('',#197,.T.);
#134=FACE_BOUND('',#198,.T.);
#135=CYLINDRICAL_SURFACE('',#199,0.4);
#136=FACE_BOUND('',#200,.T.);
#137=FACE_BOUND('',#201,.T.);
#138=TOROIDAL_SURFACE('',#202,-1.23234383845561,2.10924647123947);
#139=FACE_OUTER_BOUND('',#203,.T.);
#140=FACE_BOUND('',#204,.T.);
#141=PLANE('',#205);
#142=FACE_BOUND('',#206,.T.);
#143=FACE_BOUND('',#207,.T.);
#144=TOROIDAL_SURFACE('',#208,4.20958391184124,0.679772430629269);
#145=FACE_BOUND('',#209,.T.);
#146=FACE_BOUND('',#210,.T.);
#147=TOROIDAL_SURFACE('',#211,5.005,0.179999999999999);
#148=FACE_BOUND('',#212,.T.);
#149=FACE_BOUND('',#213,.T.);
#150=CYLINDRICAL_SURFACE('',#214,4.825);
#151=FACE_BOUND('',#215,.T.);
#152=FACE_BOUND('',#216,.T.);
#153=TOROIDAL_SURFACE('',#217,5.005,0.18);
#154=FACE_BOUND('',#218,.T.);
#155=FACE_BOUND('',#219,.T.);
#156=CYLINDRICAL_SURFACE('',#220,5.00000370668061);
#157=FACE_BOUND('',#221,.T.);
#158=FACE_BOUND('',#222,.T.);
#159=TOROIDAL_SURFACE('',#223,4.51663101582515,0.492656662369234);
#160=FACE_BOUND('',#224,.T.);
#161=FACE_BOUND('',#225,.T.);
#162=CYLINDRICAL_SURFACE('',#226,3.60000000000014);
#163=FACE_BOUND('',#227,.T.);
#164=FACE_BOUND('',#228,.T.);
#165=FACE_OUTER_BOUND('',#229,.T.);
#166=PLANE('',#230);
#167=FACE_BOUND('',#231,.T.);
#168=FACE_BOUND('',#232,.T.);
#169=FACE_BOUND('',#233,.T.);
#170=FACE_BOUND('',#234,.T.);
#171=CYLINDRICAL_SURFACE('',#235,5.0);
#172=FACE_BOUND('',#236,.T.);
#173=FACE_BOUND('',#237,.T.);
#174=TOROIDAL_SURFACE('',#238,4.5,0.5);
#175=FACE_OUTER_BOUND('',#239,.T.);
#176=PLANE('',#240);
#177=FACE_OUTER_BOUND('',#241,.T.);
#178=PLANE('',#242);
#179=FACE_BOUND('',#243,.T.);
#180=FACE_BOUND('',#244,.T.);
#181=TOROIDAL_SURFACE('',#245,4.13436468331072,0.569796064342868);
#182=FACE_BOUND('',#246,.T.);
#183=FACE_BOUND('',#247,.T.);
#184=TOROIDAL_SURFACE('',#248,4.39999135904631,0.600004163617092);
#185=SURFACE_STYLE_FILL_AREA(#249);
#187=EDGE_LOOP('',(#250));
#188=AXIS2_PLACEMENT_3D('',#251,#252,#253);
#189=EDGE_LOOP('',(#254));
#190=EDGE_LOOP('',(#255));
#191=AXIS2_PLACEMENT_3D('',#256,#257,#258);
#192=EDGE_LOOP('',(#259));
#193=EDGE_LOOP('',(#260));
#194=AXIS2_PLACEMENT_3D('',#261,#262,#263);
#195=EDGE_LOOP('',(#264));
#196=AXIS2_PLACEMENT_3D('',#265,#266,#267);
#197=EDGE_LOOP('',(#268));
#198=EDGE_LOOP('',(#269));
#199=AXIS2_PLACEMENT_3D('',#270,#271,#272);
#200=EDGE_LOOP('',(#273));
#201=EDGE_LOOP('',(#274));
#202=AXIS2_PLACEMENT_3D('',#275,#276,#277);
#203=EDGE_LOOP('',(#278));
#204=EDGE_LOOP('',(#279));
#205=AXIS2_PLACEMENT_3D('',#280,#281,#282);
#206=EDGE_LOOP('',(#283));
#207=EDGE_LOOP('',(#284));
#208=AXIS2_PLACEMENT_3D('',#285,#286,#287);
#209=EDGE_LOOP('',(#288));
#210=EDGE_LOOP('',(#289));
#211=AXIS2_PLACEMENT_3D('',#290,#291,#292);
#212=EDGE_LOOP('',(#293));
#213=EDGE_LOOP('',(#294));
#214=AXIS2_PLACEMENT_3D('',#295,#296,#297);
#215=EDGE_LOOP('',(#298));
#216=EDGE_LOOP('',(#299));
#217=AXIS2_PLACEMENT_3D('',#300,#301,#302);
#218=EDGE_LOOP('',(#303));
#219=EDGE_LOOP('',(#304));
#220=AXIS2_PLACEMENT_3D('',#305,#306,#307);
#221=EDGE_LOOP('',(#308));
#222=EDGE_LOOP('',(#309));
#223=AXIS2_PLACEMENT_3D('',#310,#311,#312);
#224=EDGE_LOOP('',(#313));
#225=EDGE_LOOP('',(#314));
#226=AXIS2_PLACEMENT_3D('',#315,#316,#317);
#227=EDGE_LOOP('',(#318));
#228=EDGE_LOOP('',(#319));
#229=EDGE_LOOP('',(#320));
#230=AXIS2_PLACEMENT_3D('',#321,#322,#323);
#231=VERTEX_LOOP('',#324);
#232=EDGE_LOOP('',(#325));
#233=VERTEX_LOOP('',#326);
#234=EDGE_LOOP('',(#327));
#235=AXIS2_PLACEMENT_3D('',#328,#329,#330);
#236=EDGE_LOOP('',(#331));
#237=EDGE_LOOP('',(#332,#333));
#238=AXIS2_PLACEMENT_3D('',#334,#335,#336);
#239=EDGE_LOOP('',(#337,#338));
#240=AXIS2_PLACEMENT_3D('',#339,#340,#341);
#241=EDGE_LOOP('',(#342,#343));
#242=AXIS2_PLACEMENT_3D('',#344,#345,#346);
#243=EDGE_LOOP('',(#347));
#244=EDGE_LOOP('',(#348));
#245=AXIS2_PLACEMENT_3D('',#349,#350,#351);
#246=EDGE_LOOP('',(#352));
#247=EDGE_LOOP('',(#353));
#248=AXIS2_PLACEMENT_3D('',#354,#355,#356);
#249=FILL_AREA_STYLE('',(#357));
#250=ORIENTED_EDGE('',*,*,#358,.T.);
#251=CARTESIAN_POINT('',(2.5,-16.9972402176443,0.0));
#252=DIRECTION('',(-1.95978593034449E-16,-1.0,0.0));
#253=DIRECTION('',(-1.0,1.95978593034449E-16,0.0));
#254=ORIENTED_EDGE('',*,*,#359,.T.);
#255=ORIENTED_EDGE('',*,*,#358,.F.);
#256=CARTESIAN_POINT('',(2.5,1.14852813742386,0.0));
#257=DIRECTION('',(-0.0,1.0,0.0));
#258=DIRECTION('',(1.0,0.0,0.0));
#259=ORIENTED_EDGE('',*,*,#359,.F.);
#260=ORIENTED_EDGE('',*,*,#360,.F.);
#261=CARTESIAN_POINT('',(2.5,1.37080472730514,0.0));
#262=DIRECTION('',(1.17002592295605E-16,-1.0,0.0));
#263=DIRECTION('',(0.0,0.0,-1.0));
#264=ORIENTED_EDGE('',*,*,#361,.T.);
#265=CARTESIAN_POINT('',(-2.5,-13.9972402176443,0.0));
#266=DIRECTION('',(-1.95978593034449E-16,-1.0,0.0));
#267=DIRECTION('',(-1.0,1.95978593034449E-16,0.0));
#268=ORIENTED_EDGE('',*,*,#362,.T.);
#269=ORIENTED_EDGE('',*,*,#361,.F.);
#270=CARTESIAN_POINT('',(-2.5,1.14852813742385,0.0));
#271=DIRECTION('',(-0.0,1.0,0.0));
#272=DIRECTION('',(1.0,0.0,0.0));
#273=ORIENTED_EDGE('',*,*,#362,.F.);
#274=ORIENTED_EDGE('',*,*,#363,.F.);
#275=CARTESIAN_POINT('',(-2.5,1.37080472730514,0.0));
#276=DIRECTION('',(-5.85012961478019E-17,-1.0,-0.0));
#277=DIRECTION('',(0.0,0.0,-1.0));
#278=ORIENTED_EDGE('',*,*,#364,.T.);
#279=ORIENTED_EDGE('',*,*,#365,.F.);
#280=CARTESIAN_POINT('',(4.43175811694883,0.00275978235572379,0.0));
#281=DIRECTION('',(-1.92210087819338E-16,-1.0,0.0));
#282=DIRECTION('',(-1.0,1.92210087819338E-16,0.0));
#283=ORIENTED_EDGE('',*,*,#365,.T.);
#284=ORIENTED_EDGE('',*,*,#366,.F.);
#285=CARTESIAN_POINT('',(-1.73472347597681E-15,0.68161644240059,0.0));
#286=DIRECTION('',(-1.92210087819338E-16,-1.0,0.0));
#287=DIRECTION('',(1.0,-1.92210087819338E-16,0.0));
#288=ORIENTED_EDGE('',*,*,#367,.F.);
#289=ORIENTED_EDGE('',*,*,#368,.T.);
#290=CARTESIAN_POINT('',(-1.73472347597681E-15,2.22282924020126,0.0));
#291=DIRECTION('',(-1.92210087819338E-16,-1.0,0.0));
#292=DIRECTION('',(1.0,-1.92210087819338E-16,0.0));
#293=ORIENTED_EDGE('',*,*,#367,.T.);
#294=ORIENTED_EDGE('',*,*,#369,.F.);
#295=CARTESIAN_POINT('',(0.0,9.50275978235572,0.0));
#296=DIRECTION('',(3.59528181549597E-16,1.0,0.0));
#297=DIRECTION('',(1.0,-3.59528181549597E-16,0.0));
#298=ORIENTED_EDGE('',*,*,#370,.F.);
#299=ORIENTED_EDGE('',*,*,#369,.T.);
#300=CARTESIAN_POINT('',(-1.73472347597681E-15,1.3826904274808,0.0));
#301=DIRECTION('',(-1.92210087819338E-16,-1.0,0.0));
#302=DIRECTION('',(1.0,-1.92210087819338E-16,0.0));
#303=ORIENTED_EDGE('',*,*,#370,.T.);
#304=ORIENTED_EDGE('',*,*,#371,.F.);
#305=CARTESIAN_POINT('',(0.0,9.50275978235572,0.0));
#306=DIRECTION('',(3.46944437992917E-16,1.0,0.0));
#307=DIRECTION('',(1.0,-3.46944437992917E-16,0.0));
#308=ORIENTED_EDGE('',*,*,#371,.T.);
#309=ORIENTED_EDGE('',*,*,#372,.F.);
#310=CARTESIAN_POINT('',(-1.73472347597681E-15,0.614728815231352,0.0));
#311=DIRECTION('',(-1.92210087819338E-16,-1.0,0.0));
#312=DIRECTION('',(1.0,-1.92210087819338E-16,0.0));
#313=ORIENTED_EDGE('',*,*,#373,.T.);
#314=ORIENTED_EDGE('',*,*,#374,.F.);
#315=CARTESIAN_POINT('',(0.0,9.50275978235572,0.0));
#316=DIRECTION('',(-0.0,1.0,0.0));
#317=DIRECTION('',(1.0,0.0,0.0));
#318=ORIENTED_EDGE('',*,*,#360,.T.);
#319=ORIENTED_EDGE('',*,*,#363,.T.);
#320=ORIENTED_EDGE('',*,*,#374,.T.);
#321=CARTESIAN_POINT('',(-1.76886326594687E-15,0.299999999999997,0.0));
#322=DIRECTION('',(-1.92210087819338E-16,-1.0,0.0));
#323=DIRECTION('',(-1.0,1.92210087819338E-16,0.0));
#324=VERTEX_POINT('',#375);
#325=ORIENTED_EDGE('',*,*,#376,.T.);
#326=VERTEX_POINT('',#377);
#327=ORIENTED_EDGE('',*,*,#368,.F.);
#328=CARTESIAN_POINT('',(0.0,9.50275978235572,0.0));
#329=DIRECTION('',(3.46944695195361E-16,1.0,0.0));
#330=DIRECTION('',(1.0,-3.46944695195361E-16,0.0));
#331=ORIENTED_EDGE('',*,*,#376,.F.);
#332=ORIENTED_EDGE('',*,*,#378,.F.);
#333=ORIENTED_EDGE('',*,*,#379,.F.);
#334=CARTESIAN_POINT('',(1.20493756307294E-15,11.2017597823557,-3.27918966394787E-16));
#335=DIRECTION('',(1.92210087819338E-16,1.0,0.0));
#336=DIRECTION('',(-1.0,1.92210087819338E-16,0.0));
#337=ORIENTED_EDGE('',*,*,#380,.F.);
#338=ORIENTED_EDGE('',*,*,#379,.T.);
#339=CARTESIAN_POINT('',(5.0,11.7017597823557,-3.27918966394787E-16));
#340=DIRECTION('',(1.92210087819338E-16,1.0,0.0));
#341=DIRECTION('',(1.0,-1.92210087819338E-16,0.0));
#342=ORIENTED_EDGE('',*,*,#378,.T.);
#343=ORIENTED_EDGE('',*,*,#380,.T.);
#344=CARTESIAN_POINT('',(1.30087795526285E-15,11.7027597823557,-3.27918966394787E-16));
#345=DIRECTION('',(-1.64651719753731E-16,1.0,0.0));
#346=DIRECTION('',(1.0,1.64651719753731E-16,0.0));
#347=ORIENTED_EDGE('',*,*,#366,.T.);
#348=ORIENTED_EDGE('',*,*,#373,.F.);
#349=CARTESIAN_POINT('',(-1.73472347597681E-15,0.600072907698851,0.0));
#350=DIRECTION('',(-1.92210087819338E-16,-1.0,0.0));
#351=DIRECTION('',(1.0,-1.92210087819338E-16,0.0));
#352=ORIENTED_EDGE('',*,*,#364,.F.);
#353=ORIENTED_EDGE('',*,*,#372,.T.);
#354=CARTESIAN_POINT('',(-1.73472347597681E-15,0.601922422588079,0.0));
#355=DIRECTION('',(-1.92210087819338E-16,-1.0,0.0));
#356=DIRECTION('',(1.0,-1.92210087819338E-16,0.0));
#357=FILL_AREA_STYLE_COLOUR('',#381);
#358=EDGE_CURVE('1:7457',#382,#382,#383,.F.);
#359=EDGE_CURVE('1:7451',#384,#384,#385,.T.);
#360=EDGE_CURVE('1:7454',#386,#386,#387,.T.);
#361=EDGE_CURVE('1:7413',#388,#388,#389,.F.);
#362=EDGE_CURVE('1:7407',#390,#390,#391,.T.);
#363=EDGE_CURVE('1:7410',#392,#392,#393,.T.);
#364=EDGE_CURVE('3:3786',#394,#394,#395,.T.);
#365=EDGE_CURVE('3:3792',#396,#396,#397,.T.);
#366=EDGE_CURVE('3:3801',#398,#398,#399,.T.);
#367=EDGE_CURVE('3:3723',#400,#400,#401,.T.);
#368=EDGE_CURVE('3:3849',#402,#402,#403,.T.);
#369=EDGE_CURVE('3:3741',#404,#404,#405,.T.);
#370=EDGE_CURVE('3:3747',#406,#406,#407,.T.);
#371=EDGE_CURVE('3:3765',#408,#408,#409,.T.);
#372=EDGE_CURVE('3:3843',#410,#410,#411,.T.);
#373=EDGE_CURVE('3:3837',#412,#412,#413,.T.);
#374=EDGE_CURVE('4:286',#414,#414,#415,.T.);
#375=CARTESIAN_POINT('',(5.0,10.1472597823557,0.0));
#376=EDGE_CURVE('3:2947',#416,#416,#417,.T.);
#377=CARTESIAN_POINT('',(-5.0,10.1472597823557,6.12323399573677E-16));
#378=EDGE_CURVE('3:2977',#418,#419,#420,.T.);
#379=EDGE_CURVE('3:2956',#419,#418,#421,.T.);
#380=EDGE_CURVE('3:2980',#419,#418,#422,.T.);
#381=COLOUR_RGB('',0.635294139385223,0.635294139385223,0.635294139385223);
#382=VERTEX_POINT('',#423);
#383=CIRCLE('',#424,0.4);
#384=VERTEX_POINT('',#425);
#385=CIRCLE('',#426,0.4);
#386=VERTEX_POINT('',#427);
#387=CIRCLE('',#428,0.584878743513133);
#388=VERTEX_POINT('',#429);
#389=CIRCLE('',#430,0.4);
#390=VERTEX_POINT('',#431);
#391=CIRCLE('',#432,0.4);
#392=VERTEX_POINT('',#433);
#393=CIRCLE('',#434,0.584878743513135);
#394=VERTEX_POINT('NONE',#435);
#395=CIRCLE('',#436,4.43175811694883);
#396=VERTEX_POINT('NONE',#437);
#397=CIRCLE('',#438,4.17431079805246);
#398=VERTEX_POINT('NONE',#439);
#399=CIRCLE('',#440,3.81212879587813);
#400=VERTEX_POINT('NONE',#441);
#401=CIRCLE('',#442,4.825);
#402=VERTEX_POINT('NONE',#443);
#403=CIRCLE('',#444,5.0);
#404=VERTEX_POINT('NONE',#445);
#405=CIRCLE('',#446,4.825);
#406=VERTEX_POINT('NONE',#447);
#407=CIRCLE('',#448,5.00000370668061);
#408=VERTEX_POINT('NONE',#449);
#409=CIRCLE('',#450,5.00000370668061);
#410=VERTEX_POINT('NONE',#451);
#411=CIRCLE('',#452,4.97906790366296);
#412=VERTEX_POINT('NONE',#453);
#413=CIRCLE('',#454,3.60000000000014);
#414=VERTEX_POINT('NONE',#455);
#415=CIRCLE('',#456,3.60000000000014);
#416=VERTEX_POINT('NONE',#457);
#417=CIRCLE('',#458,5.0);
#418=VERTEX_POINT('NONE',#459);
#419=VERTEX_POINT('NONE',#460);
#420=CIRCLE('',#461,4.5);
#421=CIRCLE('',#462,4.5);
#422=LINE('',#463,#464);
#423=CARTESIAN_POINT('',(2.1,-16.9972402176443,4.89858719658941E-17));
#424=AXIS2_PLACEMENT_3D('',#465,#466,#467);
#425=CARTESIAN_POINT('',(2.9,0.0350000000000315,0.0));
#426=AXIS2_PLACEMENT_3D('',#468,#469,#470);
#427=CARTESIAN_POINT('',(3.08487874351313,0.299999999999996,0.0));
#428=AXIS2_PLACEMENT_3D('',#471,#472,#473);
#429=CARTESIAN_POINT('',(-2.9,-13.9972402176443,4.89858719658941E-17));
#430=AXIS2_PLACEMENT_3D('',#474,#475,#476);
#431=CARTESIAN_POINT('',(-2.9,0.0350000000000315,0.0));
#432=AXIS2_PLACEMENT_3D('',#477,#478,#479);
#433=CARTESIAN_POINT('',(-3.08487874351313,0.299999999999998,0.0));
#434=AXIS2_PLACEMENT_3D('',#480,#481,#482);
#435=CARTESIAN_POINT('',(-4.43175811694883,0.00275978235572249,5.76246898173742E-16));
#436=AXIS2_PLACEMENT_3D('',#483,#484,#485);
#437=CARTESIAN_POINT('',(4.17431079805246,0.00275978235572422,0.0));
#438=AXIS2_PLACEMENT_3D('',#486,#487,#488);
#439=CARTESIAN_POINT('',(3.81212879587813,0.13014569228017,0.0));
#440=AXIS2_PLACEMENT_3D('',#489,#490,#491);
#441=CARTESIAN_POINT('',(4.825,2.22282924020126,0.0));
#442=AXIS2_PLACEMENT_3D('',#492,#493,#494);
#443=CARTESIAN_POINT('',(5.0,2.40275978235572,0.0));
#444=AXIS2_PLACEMENT_3D('',#495,#496,#497);
#445=CARTESIAN_POINT('',(4.825,1.3826904274808,0.0));
#446=AXIS2_PLACEMENT_3D('',#498,#499,#500);
#447=CARTESIAN_POINT('',(5.00000370668061,1.20275978236145,0.0));
#448=AXIS2_PLACEMENT_3D('',#501,#502,#503);
#449=CARTESIAN_POINT('',(5.00000370668061,0.519537278254912,0.0));
#450=AXIS2_PLACEMENT_3D('',#504,#505,#506);
#451=CARTESIAN_POINT('',(-4.97906790366296,0.444838521972226,6.09759957095816E-16));
#452=AXIS2_PLACEMENT_3D('',#507,#508,#509);
#453=CARTESIAN_POINT('',(3.60000000000014,0.402280238039424,0.0));
#454=AXIS2_PLACEMENT_3D('',#510,#511,#512);
#455=CARTESIAN_POINT('',(3.60000000000014,0.299999999999996,0.0));
#456=AXIS2_PLACEMENT_3D('',#513,#514,#515);
#457=CARTESIAN_POINT('',(-5.0,11.2017597823557,2.84404433178889E-16));
#458=AXIS2_PLACEMENT_3D('',#516,#517,#518);
#459=CARTESIAN_POINT('',(-0.749999999999997,11.7022597823557,-4.43705983732471));
#460=CARTESIAN_POINT('',(-0.749999999999997,11.7022597823557,4.43705983732471));
#461=AXIS2_PLACEMENT_3D('',#519,#520,#521);
#462=AXIS2_PLACEMENT_3D('',#522,#523,#524);
#463=CARTESIAN_POINT('',(-0.749999999999997,11.7027597823557,-4.43705983732471));
#464=VECTOR('',#525,1.0);
#465=CARTESIAN_POINT('',(2.5,-16.9972402176443,0.0));
#466=DIRECTION('',(1.95978593034449E-16,1.0,0.0));
#467=DIRECTION('',(1.0,-1.95978593034449E-16,0.0));
#468=CARTESIAN_POINT('',(2.5,0.0349999999994625,0.0));
#469=DIRECTION('',(0.0,-1.0,0.0));
#470=DIRECTION('',(1.0,0.0,0.0));
#471=CARTESIAN_POINT('',(2.5,0.299999999999997,0.0));
#472=DIRECTION('',(1.92210087819338E-16,1.0,0.0));
#473=DIRECTION('',(0.0,-0.0,-1.0));
#474=CARTESIAN_POINT('',(-2.5,-13.9972402176443,0.0));
#475=DIRECTION('',(1.95978593034449E-16,1.0,0.0));
#476=DIRECTION('',(1.0,-1.95978593034449E-16,0.0));
#477=CARTESIAN_POINT('',(-2.5,0.0349999999994625,0.0));
#478=DIRECTION('',(0.0,-1.0,0.0));
#479=DIRECTION('',(1.0,0.0,0.0));
#480=CARTESIAN_POINT('',(-2.5,0.299999999999998,0.0));
#481=DIRECTION('',(1.92210087819338E-16,1.0,0.0));
#482=DIRECTION('',(0.0,-0.0,-1.0));
#483=CARTESIAN_POINT('',(-1.82599583428371E-15,0.00275978235572162,0.0));
#484=DIRECTION('',(-1.92179177199899E-16,-1.0,0.0));
#485=DIRECTION('',(1.0,-1.92179177199899E-16,0.0));
#486=CARTESIAN_POINT('',(-1.82599583428371E-15,0.00275978235572509,0.0));
#487=DIRECTION('',(-1.92161111104632E-16,-1.0,0.0));
#488=DIRECTION('',(1.0,-1.92161111104632E-16,0.0));
#489=CARTESIAN_POINT('',(-1.80151097735019E-15,0.130145692280171,0.0));
#490=DIRECTION('',(-1.91975797674783E-16,-1.0,0.0));
#491=DIRECTION('',(1.0,-1.91975797674783E-16,0.0));
#492=CARTESIAN_POINT('',(-1.39927608882619E-15,2.22282924020126,0.0));
#493=DIRECTION('',(-1.79764090774799E-16,-1.0,0.0));
#494=DIRECTION('',(1.0,-1.79764090774799E-16,0.0));
#495=CARTESIAN_POINT('',(-1.3646916235173E-15,2.40275978235572,0.0));
#496=DIRECTION('',(-1.73472347597681E-16,-1.0,0.0));
#497=DIRECTION('',(1.0,-1.73472347597681E-16,0.0));
#498=CARTESIAN_POINT('',(-1.56075924379963E-15,1.3826904274808,0.0));
#499=DIRECTION('',(-1.79764090774799E-16,-1.0,0.0));
#500=DIRECTION('',(1.0,-1.79764090774799E-16,0.0));
#501=CARTESIAN_POINT('',(-1.59534372889941E-15,1.20275978236145,0.0));
#502=DIRECTION('',(-1.73472218996458E-16,-1.0,0.0));
#503=DIRECTION('',(1.0,-1.73472218996458E-16,0.0));
#504=CARTESIAN_POINT('',(-1.72666598641387E-15,0.519537278254913,0.0));
#505=DIRECTION('',(-1.95156246371016E-16,-1.0,0.0));
#506=DIRECTION('',(1.0,-1.95156246371016E-16,0.0));
#507=CARTESIAN_POINT('',(-1.74102384091896E-15,0.444838521972225,0.0));
#508=DIRECTION('',(-1.9597683223382E-16,-1.0,0.0));
#509=DIRECTION('',(1.0,-1.9597683223382E-16,0.0));
#510=CARTESIAN_POINT('',(-1.74920397241113E-15,0.402280238039425,0.0));
#511=DIRECTION('',(-1.95758725587653E-16,-1.0,0.0));
#512=DIRECTION('',(1.0,-1.95758725587653E-16,0.0));
#513=CARTESIAN_POINT('',(-1.76886326594687E-15,0.299999999999996,0.0));
#514=DIRECTION('',(-1.95758725587653E-16,-1.0,0.0));
#515=DIRECTION('',(1.0,-1.95758725587653E-16,0.0));
#516=CARTESIAN_POINT('',(1.20493756307294E-15,11.2017597823557,-3.27918966394787E-16));
#517=DIRECTION('',(-3.46944695195361E-16,-1.0,0.0));
#518=DIRECTION('',(-1.0,3.46944695195361E-16,0.0));
#519=CARTESIAN_POINT('',(1.30087795526285E-15,11.7027597823557,-3.27918966394787E-16));
#520=DIRECTION('',(0.0,1.0,0.0));
#521=DIRECTION('',(-1.0,0.0,0.0));
#522=CARTESIAN_POINT('',(1.30104260698261E-15,11.7017597823557,-3.27918966394787E-16));
#523=DIRECTION('',(0.0,1.0,0.0));
#524=DIRECTION('',(-1.0,0.0,0.0));
#525=DIRECTION('',(-0.0,-0.0,-1.0));
#526=PRESENTATION_LAYER_ASSIGNMENT('374','NONE',(#50));
ENDSEC;
END-ISO-10303-21;
