ISO-10303-21;
HEADER;
FILE_DESCRIPTION (( 'STEP AP214' ),
    '1' );
FILE_NAME ('175-6-510P THERMAL PAD .006 GRAY.step',
    '2017-12-04T14:12:18',
    ( '' ),
    ( '' ),
    'SwSTEP 2.0',
    'SolidWorks 2017',
    '' );
FILE_SCHEMA (( 'AUTOMOTIVE_DESIGN' ));
ENDSEC;

DATA;
#1 = AXIS2_PLACEMENT_3D ( 'NONE', #126, #143, #137 ) ;
#2 = DIRECTION ( 'NONE',  ( -0.0000000000000000000, -0.0000000000000000000, -1.000000000000000000 ) ) ;
#3 = ORIENTED_EDGE ( 'NONE', *, *, #136, .F. ) ;
#4 = VECTOR ( 'NONE', #168, 39.37007874015748100 ) ;
#5 = EDGE_CURVE ( 'NONE', #162, #69, #50, .T. ) ;
#6 = APPLICATION_CONTEXT ( 'automotive_design' ) ;
#7 = AXIS2_PLACEMENT_3D ( 'NONE', #199, #75, #182 ) ;
#8 = ORIENTED_EDGE ( 'NONE', *, *, #30, .F. ) ;
#9 = DIRECTION ( 'NONE',  ( 1.000000000000000000, 0.0000000000000000000, 0.0000000000000000000 ) ) ;
#10 = FACE_OUTER_BOUND ( 'NONE', #124, .T. ) ;
#11 = CARTESIAN_POINT ( 'NONE',  ( 0.0000000000000000000, 0.0000000000000000000, 0.006000000000000000100 ) ) ;
#12 = AXIS2_PLACEMENT_3D ( 'NONE', #35, #2, #161 ) ;
#13 = ORIENTED_EDGE ( 'NONE', *, *, #155, .F. ) ;
#14 = CYLINDRICAL_SURFACE ( 'NONE', #12, 0.4000000000000000200 ) ;
#15 = EDGE_CURVE ( 'NONE', #80, #158, #71, .T. ) ;
#16 = UNCERTAINTY_MEASURE_WITH_UNIT (LENGTH_MEASURE( 1.000000000000000100E-005 ), #196, 'distance_accuracy_value', 'NONE');
#17 = ORIENTED_EDGE ( 'NONE', *, *, #92, .F. ) ;
#18 = CARTESIAN_POINT ( 'NONE',  ( 0.1300000000000000000, 1.592040838891559300E-017, 0.006000000000000000100 ) ) ;
#19 = VECTOR ( 'NONE', #209, 39.37007874015748100 ) ;
#20 = FACE_OUTER_BOUND ( 'NONE', #36, .T. ) ;
#21 = DIMENSIONAL_EXPONENTS ( 1.000000000000000000, 0.0000000000000000000, 0.0000000000000000000, 0.0000000000000000000, 0.0000000000000000000, 0.0000000000000000000, 0.0000000000000000000 ) ;
#22 = APPLICATION_CONTEXT ( 'automotive_design' ) ;
#23 = CLOSED_SHELL ( 'NONE', ( #148, #213, #57, #195, #40, #128 ) ) ;
#24 = APPLICATION_PROTOCOL_DEFINITION ( 'draft international standard', 'automotive_design', 1998, #6 ) ;
#25 = FILL_AREA_STYLE ('',( #93 ) ) ;
#26 = CARTESIAN_POINT ( 'NONE',  ( 0.0000000000000000000, 0.0000000000000000000, 0.0000000000000000000 ) ) ;
#27 = CIRCLE ( 'NONE', #63, 0.4000000000000000200 ) ;
#28 = CARTESIAN_POINT ( 'NONE',  ( 0.4000000000000000200, 4.898587196589413100E-017, 0.006000000000000000100 ) ) ;
#29 = DIRECTION ( 'NONE',  ( 1.000000000000000000, 0.0000000000000000000, 0.0000000000000000000 ) ) ;
#30 = EDGE_CURVE ( 'NONE', #69, #158, #67, .T. ) ;
#31 = CARTESIAN_POINT ( 'NONE',  ( 0.0000000000000000000, 0.0000000000000000000, 0.006000000000000000100 ) ) ;
#32 = FACE_BOUND ( 'NONE', #102, .T. ) ;
#33 = ORIENTED_EDGE ( 'NONE', *, *, #139, .F. ) ;
#34 = ORIENTED_EDGE ( 'NONE', *, *, #30, .T. ) ;
#35 = CARTESIAN_POINT ( 'NONE',  ( 0.0000000000000000000, 0.0000000000000000000, 0.006000000000000000100 ) ) ;
#36 = EDGE_LOOP ( 'NONE', ( #108, #165, #122, #33 ) ) ;
#37 = PRODUCT_DEFINITION_SHAPE ( 'NONE', 'NONE',  #54 ) ;
#38 = EDGE_CURVE ( 'NONE', #218, #191, #27, .T. ) ;
#39 = LENGTH_MEASURE_WITH_UNIT ( LENGTH_MEASURE( 0.02539999999999999900 ), #202 );
#40 = ADVANCED_FACE ( 'NONE', ( #201 ), #14, .T. ) ;
#41 = DIRECTION ( 'NONE',  ( 1.000000000000000000, 0.0000000000000000000, 0.0000000000000000000 ) ) ;
#42 =( NAMED_UNIT ( * ) SI_UNIT ( $, .STERADIAN. ) SOLID_ANGLE_UNIT ( ) );
#43 = ORIENTED_EDGE ( 'NONE', *, *, #82, .F. ) ;
#44 = PRODUCT_RELATED_PRODUCT_CATEGORY ( 'part', '', ( #176 ) ) ;
#45 = DIRECTION ( 'NONE',  ( 0.0000000000000000000, 0.0000000000000000000, 1.000000000000000000 ) ) ;
#46 = CARTESIAN_POINT ( 'NONE',  ( 0.0000000000000000000, 0.0000000000000000000, 0.006000000000000000100 ) ) ;
#47 = CARTESIAN_POINT ( 'NONE',  ( 0.0000000000000000000, 0.0000000000000000000, 0.006000000000000000100 ) ) ;
#48 = DIRECTION ( 'NONE',  ( -0.0000000000000000000, -0.0000000000000000000, -1.000000000000000000 ) ) ;
#49 = PRESENTATION_STYLE_ASSIGNMENT (( #216 ) ) ;
#50 = CIRCLE ( 'NONE', #160, 0.1300000000000000000 ) ;
#51 = CYLINDRICAL_SURFACE ( 'NONE', #131, 0.1300000000000000000 ) ;
#52 = AXIS2_PLACEMENT_3D ( 'NONE', #11, #118, #221 ) ;
#53 = CARTESIAN_POINT ( 'NONE',  ( 0.0000000000000000000, 0.0000000000000000000, 0.0000000000000000000 ) ) ;
#54 = PRODUCT_DEFINITION ( 'UNKNOWN', '', #194, #99 ) ;
#55 = CIRCLE ( 'NONE', #52, 0.1300000000000000000 ) ;
#56 = ADVANCED_BREP_SHAPE_REPRESENTATION ( '175-6-510P THERMAL PAD .006 GRAY', ( #141, #66 ), #211 ) ;
#57 = ADVANCED_FACE ( 'NONE', ( #223, #109 ), #157, .T. ) ;
#58 =( CONVERSION_BASED_UNIT ( 'INCH', #105 ) LENGTH_UNIT ( ) NAMED_UNIT ( #178 ) );
#59 = CARTESIAN_POINT ( 'NONE',  ( 0.0000000000000000000, 0.0000000000000000000, 0.006000000000000000100 ) ) ;
#60 = SURFACE_STYLE_FILL_AREA ( #117 ) ;
#61 =( NAMED_UNIT ( * ) SI_UNIT ( $, .STERADIAN. ) SOLID_ANGLE_UNIT ( ) );
#62 = CARTESIAN_POINT ( 'NONE',  ( -0.4000000000000000200, 0.0000000000000000000, 0.006000000000000000100 ) ) ;
#63 = AXIS2_PLACEMENT_3D ( 'NONE', #53, #173, #70 ) ;
#64 = CYLINDRICAL_SURFACE ( 'NONE', #197, 0.4000000000000000200 ) ;
#65 = ORIENTED_EDGE ( 'NONE', *, *, #177, .T. ) ;
#66 = AXIS2_PLACEMENT_3D ( 'NONE', #217, #164, #41 ) ;
#67 = LINE ( 'NONE', #84, #19 ) ;
#68 = DIRECTION ( 'NONE',  ( 1.000000000000000000, 0.0000000000000000000, 0.0000000000000000000 ) ) ;
#69 = VERTEX_POINT ( 'NONE', #18 ) ;
#70 = DIRECTION ( 'NONE',  ( 1.000000000000000000, 0.0000000000000000000, 0.0000000000000000000 ) ) ;
#71 = CIRCLE ( 'NONE', #147, 0.1300000000000000000 ) ;
#72 = FACE_OUTER_BOUND ( 'NONE', #110, .T. ) ;
#73 = ORIENTED_EDGE ( 'NONE', *, *, #123, .T. ) ;
#74 =( NAMED_UNIT ( * ) PLANE_ANGLE_UNIT ( ) SI_UNIT ( $, .RADIAN. ) );
#75 = DIRECTION ( 'NONE',  ( 0.0000000000000000000, 0.0000000000000000000, 1.000000000000000000 ) ) ;
#76 = DIRECTION ( 'NONE',  ( 0.0000000000000000000, 0.0000000000000000000, 1.000000000000000000 ) ) ;
#77 =( CONVERSION_BASED_UNIT ( 'INCH', #39 ) LENGTH_UNIT ( ) NAMED_UNIT ( #21 ) );
#78 = FILL_AREA_STYLE_COLOUR ( '', #140 ) ;
#79 = DIRECTION ( 'NONE',  ( -0.0000000000000000000, -0.0000000000000000000, -1.000000000000000000 ) ) ;
#80 = VERTEX_POINT ( 'NONE', #101 ) ;
#81 = AXIS2_PLACEMENT_3D ( 'NONE', #46, #153, #97 ) ;
#82 = EDGE_CURVE ( 'NONE', #162, #80, #159, .T. ) ;
#83 = EDGE_LOOP ( 'NONE', ( #17, #3, #215, #138 ) ) ;
#84 = CARTESIAN_POINT ( 'NONE',  ( 0.1300000000000000000, 1.592040838891559300E-017, 0.006000000000000000100 ) ) ;
#85 = ORIENTED_EDGE ( 'NONE', *, *, #38, .F. ) ;
#86 =( GEOMETRIC_REPRESENTATION_CONTEXT ( 3 ) GLOBAL_UNCERTAINTY_ASSIGNED_CONTEXT ( ( #16 ) ) GLOBAL_UNIT_ASSIGNED_CONTEXT ( ( #196, #74, #179 ) ) REPRESENTATION_CONTEXT ( 'NONE', 'WORKASPACE' ) );
#87 = PRESENTATION_STYLE_ASSIGNMENT (( #95 ) ) ;
#88 = AXIS2_PLACEMENT_3D ( 'NONE', #200, #76, #183 ) ;
#89 =( LENGTH_UNIT ( ) NAMED_UNIT ( * ) SI_UNIT ( $, .METRE. ) );
#90 = SURFACE_STYLE_FILL_AREA ( #25 ) ;
#91 = CARTESIAN_POINT ( 'NONE',  ( -0.4000000000000000200, 0.0000000000000000000, 0.0000000000000000000 ) ) ;
#92 = EDGE_CURVE ( 'NONE', #175, #191, #154, .T. ) ;
#93 = FILL_AREA_STYLE_COLOUR ( '', #145 ) ;
#94 = CARTESIAN_POINT ( 'NONE',  ( -0.4000000000000000200, 0.0000000000000000000, 0.006000000000000000100 ) ) ;
#95 = SURFACE_STYLE_USAGE ( .BOTH. , #220 ) ;
#96 = CIRCLE ( 'NONE', #107, 0.4000000000000000200 ) ;
#97 = DIRECTION ( 'NONE',  ( -1.000000000000000000, 0.0000000000000000000, 0.0000000000000000000 ) ) ;
#98 = UNCERTAINTY_MEASURE_WITH_UNIT (LENGTH_MEASURE( 1.000000000000000100E-005 ), #58, 'distance_accuracy_value', 'NONE');
#99 = PRODUCT_DEFINITION_CONTEXT ( 'detailed design', #22, 'design' ) ;
#100 = MECHANICAL_DESIGN_GEOMETRIC_PRESENTATION_REPRESENTATION (  '', ( #214 ), #120 ) ;
#101 = CARTESIAN_POINT ( 'NONE',  ( -0.1300000000000000000, 0.0000000000000000000, 0.0000000000000000000 ) ) ;
#102 = EDGE_LOOP ( 'NONE', ( #129, #133 ) ) ;
#103 = MECHANICAL_DESIGN_GEOMETRIC_PRESENTATION_REPRESENTATION (  '', ( #187 ), #86 ) ;
#104 = VECTOR ( 'NONE', #79, 39.37007874015748100 ) ;
#105 = LENGTH_MEASURE_WITH_UNIT ( LENGTH_MEASURE( 0.02539999999999999900 ), #180 );
#106 = DIRECTION ( 'NONE',  ( 0.0000000000000000000, 0.0000000000000000000, 1.000000000000000000 ) ) ;
#107 = AXIS2_PLACEMENT_3D ( 'NONE', #26, #134, #9 ) ;
#108 = ORIENTED_EDGE ( 'NONE', *, *, #177, .F. ) ;
#109 = FACE_BOUND ( 'NONE', #198, .T. ) ;
#110 = EDGE_LOOP ( 'NONE', ( #203, #34, #170, #43 ) ) ;
#111 = PRESENTATION_LAYER_ASSIGNMENT (  '', '', ( #214 ) ) ;
#112 = SURFACE_SIDE_STYLE ('',( #90 ) ) ;
#113 = ORIENTED_EDGE ( 'NONE', *, *, #169, .F. ) ;
#114 = DIRECTION ( 'NONE',  ( -0.0000000000000000000, -0.0000000000000000000, -1.000000000000000000 ) ) ;
#115 = PLANE ( 'NONE',  #189 ) ;
#116 = CARTESIAN_POINT ( 'NONE',  ( -0.1300000000000000000, 0.0000000000000000000, 0.006000000000000000100 ) ) ;
#117 = FILL_AREA_STYLE ('',( #78 ) ) ;
#118 = DIRECTION ( 'NONE',  ( 0.0000000000000000000, 0.0000000000000000000, 1.000000000000000000 ) ) ;
#119 = CARTESIAN_POINT ( 'NONE',  ( -0.1300000000000000000, 0.0000000000000000000, 0.006000000000000000100 ) ) ;
#120 =( GEOMETRIC_REPRESENTATION_CONTEXT ( 3 ) GLOBAL_UNCERTAINTY_ASSIGNED_CONTEXT ( ( #193 ) ) GLOBAL_UNIT_ASSIGNED_CONTEXT ( ( #77, #184, #61 ) ) REPRESENTATION_CONTEXT ( 'NONE', 'WORKASPACE' ) );
#121 = EDGE_LOOP ( 'NONE', ( #85, #113 ) ) ;
#122 = ORIENTED_EDGE ( 'NONE', *, *, #169, .T. ) ;
#123 = EDGE_CURVE ( 'NONE', #69, #162, #55, .T. ) ;
#124 = EDGE_LOOP ( 'NONE', ( #8, #73, #171, #13 ) ) ;
#125 = DIRECTION ( 'NONE',  ( 1.000000000000000000, 0.0000000000000000000, 0.0000000000000000000 ) ) ;
#126 = CARTESIAN_POINT ( 'NONE',  ( 0.0000000000000000000, 0.0000000000000000000, 0.006000000000000000100 ) ) ;
#127 = ORIENTED_EDGE ( 'NONE', *, *, #136, .T. ) ;
#128 = ADVANCED_FACE ( 'NONE', ( #10 ), #51, .F. ) ;
#129 = ORIENTED_EDGE ( 'NONE', *, *, #15, .T. ) ;
#130 = APPLICATION_PROTOCOL_DEFINITION ( 'draft international standard', 'automotive_design', 1998, #22 ) ;
#131 = AXIS2_PLACEMENT_3D ( 'NONE', #31, #48, #135 ) ;
#132 = DIRECTION ( 'NONE',  ( -1.000000000000000000, 0.0000000000000000000, 0.0000000000000000000 ) ) ;
#133 = ORIENTED_EDGE ( 'NONE', *, *, #155, .T. ) ;
#134 = DIRECTION ( 'NONE',  ( 0.0000000000000000000, 0.0000000000000000000, 1.000000000000000000 ) ) ;
#135 = DIRECTION ( 'NONE',  ( -1.000000000000000000, 0.0000000000000000000, 0.0000000000000000000 ) ) ;
#136 = EDGE_CURVE ( 'NONE', #181, #175, #146, .T. ) ;
#137 = DIRECTION ( 'NONE',  ( 1.000000000000000000, 0.0000000000000000000, -0.0000000000000000000 ) ) ;
#138 = ORIENTED_EDGE ( 'NONE', *, *, #38, .T. ) ;
#139 = EDGE_CURVE ( 'NONE', #181, #218, #188, .T. ) ;
#140 = COLOUR_RGB ( '',0.8666666666666667000, 0.9098039215686274400, 1.000000000000000000 ) ;
#141 = MANIFOLD_SOLID_BREP ( 'Boss-Extrude1', #23 ) ;
#142 = DIRECTION ( 'NONE',  ( 0.0000000000000000000, 0.0000000000000000000, 1.000000000000000000 ) ) ;
#143 = DIRECTION ( 'NONE',  ( 0.0000000000000000000, 0.0000000000000000000, 1.000000000000000000 ) ) ;
#144 = AXIS2_PLACEMENT_3D ( 'NONE', #47, #156, #29 ) ;
#145 = COLOUR_RGB ( '',0.8666666666666667000, 0.9098039215686274400, 1.000000000000000000 ) ;
#146 = CIRCLE ( 'NONE', #144, 0.4000000000000000200 ) ;
#147 = AXIS2_PLACEMENT_3D ( 'NONE', #190, #106, #125 ) ;
#148 = ADVANCED_FACE ( 'NONE', ( #72 ), #163, .F. ) ;
#149 = PRODUCT_CONTEXT ( 'NONE', #6, 'mechanical' ) ;
#150 = DIMENSIONAL_EXPONENTS ( 1.000000000000000000, 0.0000000000000000000, 0.0000000000000000000, 0.0000000000000000000, 0.0000000000000000000, 0.0000000000000000000, 0.0000000000000000000 ) ;
#151 = DIRECTION ( 'NONE',  ( 1.000000000000000000, 0.0000000000000000000, -0.0000000000000000000 ) ) ;
#152 = CARTESIAN_POINT ( 'NONE',  ( 0.4000000000000000200, 4.898587196589413100E-017, 0.0000000000000000000 ) ) ;
#153 = DIRECTION ( 'NONE',  ( -0.0000000000000000000, -0.0000000000000000000, -1.000000000000000000 ) ) ;
#154 = LINE ( 'NONE', #204, #192 ) ;
#155 = EDGE_CURVE ( 'NONE', #158, #80, #208, .T. ) ;
#156 = DIRECTION ( 'NONE',  ( 0.0000000000000000000, 0.0000000000000000000, 1.000000000000000000 ) ) ;
#157 = PLANE ( 'NONE',  #1 ) ;
#158 = VERTEX_POINT ( 'NONE', #219 ) ;
#159 = LINE ( 'NONE', #119, #104 ) ;
#160 = AXIS2_PLACEMENT_3D ( 'NONE', #207, #142, #68 ) ;
#161 = DIRECTION ( 'NONE',  ( -1.000000000000000000, 0.0000000000000000000, 0.0000000000000000000 ) ) ;
#162 = VERTEX_POINT ( 'NONE', #116 ) ;
#163 = CYLINDRICAL_SURFACE ( 'NONE', #81, 0.1300000000000000000 ) ;
#164 = DIRECTION ( 'NONE',  ( 0.0000000000000000000, 0.0000000000000000000, 1.000000000000000000 ) ) ;
#165 = ORIENTED_EDGE ( 'NONE', *, *, #92, .T. ) ;
#166 =( NAMED_UNIT ( * ) PLANE_ANGLE_UNIT ( ) SI_UNIT ( $, .RADIAN. ) );
#167 = CARTESIAN_POINT ( 'NONE',  ( 0.0000000000000000000, 0.0000000000000000000, 0.0000000000000000000 ) ) ;
#168 = DIRECTION ( 'NONE',  ( -0.0000000000000000000, -0.0000000000000000000, -1.000000000000000000 ) ) ;
#169 = EDGE_CURVE ( 'NONE', #191, #218, #96, .T. ) ;
#170 = ORIENTED_EDGE ( 'NONE', *, *, #15, .F. ) ;
#171 = ORIENTED_EDGE ( 'NONE', *, *, #82, .T. ) ;
#172 = ORIENTED_EDGE ( 'NONE', *, *, #123, .F. ) ;
#173 = DIRECTION ( 'NONE',  ( 0.0000000000000000000, 0.0000000000000000000, 1.000000000000000000 ) ) ;
#174 = PRESENTATION_LAYER_ASSIGNMENT (  '', '', ( #187 ) ) ;
#175 = VERTEX_POINT ( 'NONE', #28 ) ;
#176 = PRODUCT ( '175-6-510P THERMAL PAD .006 GRAY', '175-6-510P THERMAL PAD .006 GRAY', '', ( #149 ) ) ;
#177 = EDGE_CURVE ( 'NONE', #175, #181, #185, .T. ) ;
#178 = DIMENSIONAL_EXPONENTS ( 1.000000000000000000, 0.0000000000000000000, 0.0000000000000000000, 0.0000000000000000000, 0.0000000000000000000, 0.0000000000000000000, 0.0000000000000000000 ) ;
#179 =( NAMED_UNIT ( * ) SI_UNIT ( $, .STERADIAN. ) SOLID_ANGLE_UNIT ( ) );
#180 =( LENGTH_UNIT ( ) NAMED_UNIT ( * ) SI_UNIT ( $, .METRE. ) );
#181 = VERTEX_POINT ( 'NONE', #94 ) ;
#182 = DIRECTION ( 'NONE',  ( 1.000000000000000000, 0.0000000000000000000, 0.0000000000000000000 ) ) ;
#183 = DIRECTION ( 'NONE',  ( 1.000000000000000000, 0.0000000000000000000, 0.0000000000000000000 ) ) ;
#184 =( NAMED_UNIT ( * ) PLANE_ANGLE_UNIT ( ) SI_UNIT ( $, .RADIAN. ) );
#185 = CIRCLE ( 'NONE', #7, 0.4000000000000000200 ) ;
#186 = DIRECTION ( 'NONE',  ( -0.0000000000000000000, -0.0000000000000000000, -1.000000000000000000 ) ) ;
#187 = STYLED_ITEM ( 'NONE', ( #49 ), #56 ) ;
#188 = LINE ( 'NONE', #62, #4 ) ;
#189 = AXIS2_PLACEMENT_3D ( 'NONE', #167, #45, #151 ) ;
#190 = CARTESIAN_POINT ( 'NONE',  ( 0.0000000000000000000, 0.0000000000000000000, 0.0000000000000000000 ) ) ;
#191 = VERTEX_POINT ( 'NONE', #152 ) ;
#192 = VECTOR ( 'NONE', #186, 39.37007874015748100 ) ;
#193 = UNCERTAINTY_MEASURE_WITH_UNIT (LENGTH_MEASURE( 1.000000000000000100E-005 ), #77, 'distance_accuracy_value', 'NONE');
#194 = PRODUCT_DEFINITION_FORMATION_WITH_SPECIFIED_SOURCE ( 'ANY', '', #176, .NOT_KNOWN. ) ;
#195 = ADVANCED_FACE ( 'NONE', ( #205, #32 ), #115, .F. ) ;
#196 =( CONVERSION_BASED_UNIT ( 'INCH', #222 ) LENGTH_UNIT ( ) NAMED_UNIT ( #150 ) );
#197 = AXIS2_PLACEMENT_3D ( 'NONE', #59, #114, #132 ) ;
#198 = EDGE_LOOP ( 'NONE', ( #206, #172 ) ) ;
#199 = CARTESIAN_POINT ( 'NONE',  ( 0.0000000000000000000, 0.0000000000000000000, 0.006000000000000000100 ) ) ;
#200 = CARTESIAN_POINT ( 'NONE',  ( 0.0000000000000000000, 0.0000000000000000000, 0.0000000000000000000 ) ) ;
#201 = FACE_OUTER_BOUND ( 'NONE', #83, .T. ) ;
#202 =( LENGTH_UNIT ( ) NAMED_UNIT ( * ) SI_UNIT ( $, .METRE. ) );
#203 = ORIENTED_EDGE ( 'NONE', *, *, #5, .T. ) ;
#204 = CARTESIAN_POINT ( 'NONE',  ( 0.4000000000000000200, 4.898587196589413100E-017, 0.006000000000000000100 ) ) ;
#205 = FACE_OUTER_BOUND ( 'NONE', #121, .T. ) ;
#206 = ORIENTED_EDGE ( 'NONE', *, *, #5, .F. ) ;
#207 = CARTESIAN_POINT ( 'NONE',  ( 0.0000000000000000000, 0.0000000000000000000, 0.006000000000000000100 ) ) ;
#208 = CIRCLE ( 'NONE', #88, 0.1300000000000000000 ) ;
#209 = DIRECTION ( 'NONE',  ( -0.0000000000000000000, -0.0000000000000000000, -1.000000000000000000 ) ) ;
#210 = EDGE_LOOP ( 'NONE', ( #127, #65 ) ) ;
#211 =( GEOMETRIC_REPRESENTATION_CONTEXT ( 3 ) GLOBAL_UNCERTAINTY_ASSIGNED_CONTEXT ( ( #98 ) ) GLOBAL_UNIT_ASSIGNED_CONTEXT ( ( #58, #166, #42 ) ) REPRESENTATION_CONTEXT ( 'NONE', 'WORKASPACE' ) );
#212 = SHAPE_DEFINITION_REPRESENTATION ( #37, #56 ) ;
#213 = ADVANCED_FACE ( 'NONE', ( #20 ), #64, .T. ) ;
#214 = STYLED_ITEM ( 'NONE', ( #87 ), #141 ) ;
#215 = ORIENTED_EDGE ( 'NONE', *, *, #139, .T. ) ;
#216 = SURFACE_STYLE_USAGE ( .BOTH. , #112 ) ;
#217 = CARTESIAN_POINT ( 'NONE',  ( 0.0000000000000000000, 0.0000000000000000000, 0.0000000000000000000 ) ) ;
#218 = VERTEX_POINT ( 'NONE', #91 ) ;
#219 = CARTESIAN_POINT ( 'NONE',  ( 0.1300000000000000000, 1.592040838891559300E-017, 0.0000000000000000000 ) ) ;
#220 = SURFACE_SIDE_STYLE ('',( #60 ) ) ;
#221 = DIRECTION ( 'NONE',  ( 1.000000000000000000, 0.0000000000000000000, 0.0000000000000000000 ) ) ;
#222 = LENGTH_MEASURE_WITH_UNIT ( LENGTH_MEASURE( 0.02539999999999999900 ), #89 );
#223 = FACE_OUTER_BOUND ( 'NONE', #210, .T. ) ;
ENDSEC;
END-ISO-10303-21;
