ISO-10303-21;
HEADER;
FILE_DESCRIPTION(('OneSpaceDesigner STEP Export'),'2;1');
FILE_NAME('0201689_mps_ih_bu.stp','2004-06-01T 8:36:41',(''),(''),
'OneSpace Designer STEP processor (Jan. 2003) for AP203(Solid Model)',
'OneSpace Designer 12.01C  26-Mar-2004 (C) CoCreate Software GmbH','');
FILE_SCHEMA(('CONFIG_CONTROL_DESIGN'));
ENDSEC;
DATA;
#10=CARTESIAN_POINT('',(47.9183180398275,93.2970180907559,0.));
#20=DIRECTION('',(0.,-1.,0.));
#30=DIRECTION('',(-1.,0.,0.));
#40=AXIS2_PLACEMENT_3D('',#10,#20,#30);
#50=CONICAL_SURFACE('',#40,2.30000000000005,0.00727259905240171);
#60=CARTESIAN_POINT('',(50.2183180398276,93.2970180907559,
-2.81668763803898E-16));
#70=DIRECTION('',(0.00727253494376579,-0.999973554768071,
-8.90628664057005E-19));
#80=VECTOR('',#70,1.);
#90=LINE('',#60,#80);
#100=CARTESIAN_POINT('',(50.2183180398276,93.2970180907559,
-2.81668763803898E-16));
#110=VERTEX_POINT('',#100);
#120=CARTESIAN_POINT('',(50.4183180398275,65.7970180907559,
-3.06161699786838E-16));
#130=VERTEX_POINT('',#120);
#140=EDGE_CURVE('',#110,#130,#90,.T.);
#150=ORIENTED_EDGE('',*,*,#140,.F.);
#160=CARTESIAN_POINT('',(47.9183180398275,65.7970180907559,0.));
#170=DIRECTION('',(0.,-1.,0.));
#180=DIRECTION('',(-1.,0.,0.));
#190=AXIS2_PLACEMENT_3D('',#160,#170,#180);
#200=CIRCLE('',#190,2.5);
#210=CARTESIAN_POINT('',(45.4183180398275,65.7970180907559,0.));
#220=VERTEX_POINT('',#210);
#230=EDGE_CURVE('',#130,#220,#200,.T.);
#240=ORIENTED_EDGE('',*,*,#230,.F.);
#250=CARTESIAN_POINT('',(45.6183180398274,93.2970180907559,0.));
#260=DIRECTION('',(-0.00727253494376579,-0.999973554768071,0.));
#270=VECTOR('',#260,1.);
#280=LINE('',#250,#270);
#290=CARTESIAN_POINT('',(45.6183180398274,93.2970180907559,0.));
#300=VERTEX_POINT('',#290);
#310=EDGE_CURVE('',#300,#220,#280,.T.);
#320=ORIENTED_EDGE('',*,*,#310,.T.);
#330=CARTESIAN_POINT('',(47.9183180398275,93.2970180907559,0.));
#340=DIRECTION('',(0.,-1.,0.));
#350=DIRECTION('',(-1.,0.,0.));
#360=AXIS2_PLACEMENT_3D('',#330,#340,#350);
#370=CIRCLE('',#360,2.30000000000005);
#380=EDGE_CURVE('',#110,#300,#370,.T.);
#390=ORIENTED_EDGE('',*,*,#380,.T.);
#400=EDGE_LOOP('',(#390,#320,#240,#150));
#410=FACE_OUTER_BOUND('',#400,.T.);
#420=ADVANCED_FACE('',(#410),#50,.T.);
#430=COLOUR_RGB('',0.,0.301960796117783,1.);
#440=FILL_AREA_STYLE_COLOUR('',#430);
#450=FILL_AREA_STYLE('',(#440));
#460=SURFACE_STYLE_FILL_AREA(#450);
#470=SURFACE_SIDE_STYLE('',(#460));
#480=SURFACE_STYLE_USAGE(.BOTH.,#470);
#490=PRESENTATION_STYLE_ASSIGNMENT((#480));
#500=CARTESIAN_POINT('',(46.7683180398275,93.2970180907559,0.));
#510=DIRECTION('',(-0.,-1.,-0.));
#520=DIRECTION('',(-1.,0.,0.));
#530=AXIS2_PLACEMENT_3D('',#500,#510,#520);
#540=PLANE('',#530);
#550=EDGE_CURVE('',#300,#110,#370,.T.);
#560=ORIENTED_EDGE('',*,*,#550,.F.);
#570=ORIENTED_EDGE('',*,*,#380,.F.);
#580=EDGE_LOOP('',(#570,#560));
#590=FACE_OUTER_BOUND('',#580,.T.);
#600=ADVANCED_FACE('',(#590),#540,.F.);
#610=COLOUR_RGB('',0.,0.301960796117783,1.);
#620=FILL_AREA_STYLE_COLOUR('',#610);
#630=FILL_AREA_STYLE('',(#620));
#640=SURFACE_STYLE_FILL_AREA(#630);
#650=SURFACE_SIDE_STYLE('',(#640));
#660=SURFACE_STYLE_USAGE(.BOTH.,#650);
#670=PRESENTATION_STYLE_ASSIGNMENT((#660));
#680=CARTESIAN_POINT('',(46.6683180398275,65.7970180907559,0.));
#690=DIRECTION('',(-0.,-1.,-0.));
#700=DIRECTION('',(-1.,0.,0.));
#710=AXIS2_PLACEMENT_3D('',#680,#690,#700);
#720=PLANE('',#710);
#730=EDGE_CURVE('',#220,#130,#200,.T.);
#740=ORIENTED_EDGE('',*,*,#730,.T.);
#750=ORIENTED_EDGE('',*,*,#230,.T.);
#760=EDGE_LOOP('',(#750,#740));
#770=FACE_OUTER_BOUND('',#760,.T.);
#780=ADVANCED_FACE('',(#770),#720,.T.);
#790=COLOUR_RGB('',0.,0.301960796117783,1.);
#800=FILL_AREA_STYLE_COLOUR('',#790);
#810=FILL_AREA_STYLE('',(#800));
#820=SURFACE_STYLE_FILL_AREA(#810);
#830=SURFACE_SIDE_STYLE('',(#820));
#840=SURFACE_STYLE_USAGE(.BOTH.,#830);
#850=PRESENTATION_STYLE_ASSIGNMENT((#840));
#860=ORIENTED_EDGE('',*,*,#730,.F.);
#870=ORIENTED_EDGE('',*,*,#140,.T.);
#880=ORIENTED_EDGE('',*,*,#550,.T.);
#890=ORIENTED_EDGE('',*,*,#310,.F.);
#900=EDGE_LOOP('',(#890,#880,#870,#860));
#910=FACE_OUTER_BOUND('',#900,.T.);
#920=ADVANCED_FACE('',(#910),#50,.T.);
#930=COLOUR_RGB('',0.,0.301960796117783,1.);
#940=FILL_AREA_STYLE_COLOUR('',#930);
#950=FILL_AREA_STYLE('',(#940));
#960=SURFACE_STYLE_FILL_AREA(#950);
#970=SURFACE_SIDE_STYLE('',(#960));
#980=SURFACE_STYLE_USAGE(.BOTH.,#970);
#990=PRESENTATION_STYLE_ASSIGNMENT((#980));
#1000=CLOSED_SHELL('',(#420,#600,#780,#920));
#1010=MANIFOLD_SOLID_BREP('',#1000);
#1020=CARTESIAN_POINT('',(0.,0.,0.));
#1030=DIRECTION('',(0.,0.,1.));
#1040=DIRECTION('',(1.,0.,0.));
#1050=AXIS2_PLACEMENT_3D('',#1020,#1030,#1040);
#1060=APPLICATION_CONTEXT(
'CONFIGURATION CONTROLLED 3D DESIGNS OF MECHANICAL PARTS AND ASSEMBLIES 
');
#1070=APPLICATION_PROTOCOL_DEFINITION(' ','config_control_design',1998,
#1060);
#1080=MECHANICAL_CONTEXT('',#1060,'mechanical');
#1090=DESIGN_CONTEXT(' ',#1060,'design');
#1100=PRODUCT('0201689_mps_ih_bu','0201689_mps_ih_bu','',(#1080));
#1110=PRODUCT_RELATED_PRODUCT_CATEGORY('detail',' ',(#1100));
#1120=PRODUCT_DEFINITION_FORMATION_WITH_SPECIFIED_SOURCE('','',#1100,
.BOUGHT.);
#1130=PERSON(' ',' ',' ',$,$,$);
#1140=ORGANIZATION(' ',' ',' ');
#1150=PERSON_AND_ORGANIZATION(#1130,#1140);
#1160=PERSON_AND_ORGANIZATION_ROLE('design_owner');
#1170=CC_DESIGN_PERSON_AND_ORGANIZATION_ASSIGNMENT(#1150,#1160,(#1100));
#1180=PRODUCT_DEFINITION('',' ',#1120,#1090);
#1190=PRODUCT_DEFINITION_SHAPE('','',#1180);
#1200=PERSON(' ',' ',' ',$,$,$);
#1210=ORGANIZATION(' ',' ',' ');
#1220=PERSON_AND_ORGANIZATION(#1200,#1210);
#1230=PERSON_AND_ORGANIZATION_ROLE('creator');
#1240=CC_DESIGN_PERSON_AND_ORGANIZATION_ASSIGNMENT(#1220,#1230,(#1120));
#1250=CC_DESIGN_PERSON_AND_ORGANIZATION_ASSIGNMENT(#1220,#1230,(#1180));
#1260=PERSON(' ',' ',' ',$,$,$);
#1270=ORGANIZATION(' ',' ',' ');
#1280=PERSON_AND_ORGANIZATION(#1260,#1270);
#1290=PERSON_AND_ORGANIZATION_ROLE('design_supplier');
#1300=CC_DESIGN_PERSON_AND_ORGANIZATION_ASSIGNMENT(#1280,#1290,(#1120));
#1310=CALENDAR_DATE(1993,19,7);
#1320=COORDINATED_UNIVERSAL_TIME_OFFSET(5,0,.BEHIND.);
#1330=LOCAL_TIME(19,46,55.,#1320);
#1340=DATE_AND_TIME(#1310,#1330);
#1350=DATE_TIME_ROLE('creation_date');
#1360=CC_DESIGN_DATE_AND_TIME_ASSIGNMENT(#1340,#1350,(#1180));
#1370=SECURITY_CLASSIFICATION_LEVEL('unclassified');
#1380=SECURITY_CLASSIFICATION(' ',' ',#1370);
#1390=CC_DESIGN_SECURITY_CLASSIFICATION(#1380,(#1120));
#1400=PERSON(' ',' ',' ',$,$,$);
#1410=ORGANIZATION(' ',' ',' ');
#1420=PERSON_AND_ORGANIZATION(#1400,#1410);
#1430=PERSON_AND_ORGANIZATION_ROLE('classification_officer');
#1440=CC_DESIGN_PERSON_AND_ORGANIZATION_ASSIGNMENT(#1420,#1430,(#1380));
#1450=CALENDAR_DATE(1993,17,7);
#1460=COORDINATED_UNIVERSAL_TIME_OFFSET(5,0,.BEHIND.);
#1470=LOCAL_TIME(13,45,20.,#1460);
#1480=DATE_AND_TIME(#1450,#1470);
#1490=DATE_TIME_ROLE('classification_date');
#1500=CC_DESIGN_DATE_AND_TIME_ASSIGNMENT(#1480,#1490,(#1380));
#1510=PERSON(' ',' ',' ',$,$,$);
#1520=ORGANIZATION(' ',' ',' ');
#1530=PERSON_AND_ORGANIZATION(#1510,#1520);
#1540=APPROVAL_STATUS('approved');
#1550=APPROVAL(#1540,' ');
#1560=CALENDAR_DATE(1993,19,7);
#1570=COORDINATED_UNIVERSAL_TIME_OFFSET(5,0,.BEHIND.);
#1580=LOCAL_TIME(19,47,51.,#1570);
#1590=DATE_AND_TIME(#1560,#1580);
#1600=APPROVAL_DATE_TIME(#1590,#1550);
#1610=APPROVAL_ROLE('APPROVER');
#1620=APPROVAL_PERSON_ORGANIZATION(#1530,#1550,#1610);
#1630=CC_DESIGN_APPROVAL(#1550,(#1180));
#1640=PERSON(' ',' ',' ',$,$,$);
#1650=ORGANIZATION(' ',' ',' ');
#1660=PERSON_AND_ORGANIZATION(#1640,#1650);
#1670=APPROVAL_STATUS('approved');
#1680=APPROVAL(#1670,' ');
#1690=CALENDAR_DATE(1993,17,7);
#1700=COORDINATED_UNIVERSAL_TIME_OFFSET(5,0,.BEHIND.);
#1710=LOCAL_TIME(13,29,52.,#1700);
#1720=DATE_AND_TIME(#1690,#1710);
#1730=APPROVAL_DATE_TIME(#1720,#1680);
#1740=APPROVAL_ROLE('APPROVER');
#1750=APPROVAL_PERSON_ORGANIZATION(#1660,#1680,#1740);
#1760=CC_DESIGN_APPROVAL(#1680,(#1120));
#1770=PERSON(' ',' ',' ',$,$,$);
#1780=ORGANIZATION(' ',' ',' ');
#1790=PERSON_AND_ORGANIZATION(#1770,#1780);
#1800=APPROVAL_STATUS('approved');
#1810=APPROVAL(#1800,' ');
#1820=CALENDAR_DATE(1993,17,7);
#1830=COORDINATED_UNIVERSAL_TIME_OFFSET(5,0,.BEHIND.);
#1840=LOCAL_TIME(13,47,28.,#1830);
#1850=DATE_AND_TIME(#1820,#1840);
#1860=APPROVAL_DATE_TIME(#1850,#1810);
#1870=APPROVAL_ROLE('APPROVER');
#1880=APPROVAL_PERSON_ORGANIZATION(#1790,#1810,#1870);
#1890=CC_DESIGN_APPROVAL(#1810,(#1380));
#1900=DIMENSIONAL_EXPONENTS(1.,0.,0.,0.,0.,0.,0.);
#1910=DIMENSIONAL_EXPONENTS(0.,0.,0.,0.,0.,0.,0.);
#1920=DIMENSIONAL_EXPONENTS(0.,0.,0.,0.,0.,0.,0.);
#1930=(LENGTH_UNIT() NAMED_UNIT(*) SI_UNIT(.MILLI.,.METRE.));
#1940=(NAMED_UNIT(*) PLANE_ANGLE_UNIT() SI_UNIT($,.RADIAN.));
#1950=(NAMED_UNIT(*) SI_UNIT($,.STERADIAN.) SOLID_ANGLE_UNIT());
#1960=(GEOMETRIC_REPRESENTATION_CONTEXT(3) 
GLOBAL_UNCERTAINTY_ASSIGNED_CONTEXT((#1970)) 
GLOBAL_UNIT_ASSIGNED_CONTEXT((#1930,#1940,#1950)) REPRESENTATION_CONTEXT
('',''));
#1970=UNCERTAINTY_MEASURE_WITH_UNIT(LENGTH_MEASURE(1.E-6),#1930,
'closure','maximum gap value');
#1980=ADVANCED_BREP_SHAPE_REPRESENTATION('',(#1050,#1010),#1960);
#1990=SHAPE_DEFINITION_REPRESENTATION(#1190,#1980);
#2000=COLOUR_RGB('',0.,0.301960796117783,1.);
#2010=FILL_AREA_STYLE_COLOUR('',#2000);
#2020=FILL_AREA_STYLE('',(#2010));
#2030=SURFACE_STYLE_FILL_AREA(#2020);
#2040=SURFACE_SIDE_STYLE('',(#2030));
#2050=SURFACE_STYLE_USAGE(.BOTH.,#2040);
#2060=PRESENTATION_STYLE_ASSIGNMENT((#2050));
#2070=STYLED_ITEM('',(#2060),#1010);
#2080=OVER_RIDING_STYLED_ITEM('',(#490),#420,#2070);
#2090=OVER_RIDING_STYLED_ITEM('',(#670),#600,#2070);
#2100=OVER_RIDING_STYLED_ITEM('',(#850),#780,#2070);
#2110=OVER_RIDING_STYLED_ITEM('',(#990),#920,#2070);
#2120=MECHANICAL_DESIGN_GEOMETRIC_PRESENTATION_REPRESENTATION('',(#2070,
#2080,#2090,#2100,#2110),#1960);
#2130=CARTESIAN_POINT('',(-47.9183180398275,-65.7970180907559,0.));
#2140=DIRECTION('',(0.,0.,1.));
#2150=DIRECTION('',(1.,0.,0.));
#2160=AXIS2_PLACEMENT_3D('',#2130,#2140,#2150);
#2170=ITEM_DEFINED_TRANSFORMATION('0201689_mps_ih_bu','',#1050,#2160);
#2180=APPLICATION_CONTEXT(
'CONFIGURATION CONTROLLED 3D DESIGNS OF MECHANICAL PARTS AND ASSEMBLIES 
');
#2190=APPLICATION_PROTOCOL_DEFINITION(' ','config_control_design',1998,
#2180);
#2200=MECHANICAL_CONTEXT('',#2180,'mechanical');
#2210=DESIGN_CONTEXT(' ',#2180,'design');
#2220=PRODUCT('0201689_mps_ih_bu','0201689_mps_ih_bu','',(#2200));
#2230=PRODUCT_RELATED_PRODUCT_CATEGORY('detail',' ',(#2220));
#2240=PRODUCT_DEFINITION_FORMATION_WITH_SPECIFIED_SOURCE('','',#2220,
.BOUGHT.);
#2250=PERSON(' ',' ',' ',$,$,$);
#2260=ORGANIZATION(' ',' ',' ');
#2270=PERSON_AND_ORGANIZATION(#2250,#2260);
#2280=PERSON_AND_ORGANIZATION_ROLE('design_owner');
#2290=CC_DESIGN_PERSON_AND_ORGANIZATION_ASSIGNMENT(#2270,#2280,(#2220));
#2300=PRODUCT_DEFINITION('',' ',#2240,#2210);
#2310=PRODUCT_DEFINITION_SHAPE('','',#2300);
#2320=PERSON(' ',' ',' ',$,$,$);
#2330=ORGANIZATION(' ',' ',' ');
#2340=PERSON_AND_ORGANIZATION(#2320,#2330);
#2350=PERSON_AND_ORGANIZATION_ROLE('creator');
#2360=CC_DESIGN_PERSON_AND_ORGANIZATION_ASSIGNMENT(#2340,#2350,(#2240));
#2370=CC_DESIGN_PERSON_AND_ORGANIZATION_ASSIGNMENT(#2340,#2350,(#2300));
#2380=PERSON(' ',' ',' ',$,$,$);
#2390=ORGANIZATION(' ',' ',' ');
#2400=PERSON_AND_ORGANIZATION(#2380,#2390);
#2410=PERSON_AND_ORGANIZATION_ROLE('design_supplier');
#2420=CC_DESIGN_PERSON_AND_ORGANIZATION_ASSIGNMENT(#2400,#2410,(#2240));
#2430=CALENDAR_DATE(1993,19,7);
#2440=COORDINATED_UNIVERSAL_TIME_OFFSET(5,0,.BEHIND.);
#2450=LOCAL_TIME(19,46,55.,#2440);
#2460=DATE_AND_TIME(#2430,#2450);
#2470=DATE_TIME_ROLE('creation_date');
#2480=CC_DESIGN_DATE_AND_TIME_ASSIGNMENT(#2460,#2470,(#2300));
#2490=SECURITY_CLASSIFICATION_LEVEL('unclassified');
#2500=SECURITY_CLASSIFICATION(' ',' ',#2490);
#2510=CC_DESIGN_SECURITY_CLASSIFICATION(#2500,(#2240));
#2520=PERSON(' ',' ',' ',$,$,$);
#2530=ORGANIZATION(' ',' ',' ');
#2540=PERSON_AND_ORGANIZATION(#2520,#2530);
#2550=PERSON_AND_ORGANIZATION_ROLE('classification_officer');
#2560=CC_DESIGN_PERSON_AND_ORGANIZATION_ASSIGNMENT(#2540,#2550,(#2500));
#2570=CALENDAR_DATE(1993,17,7);
#2580=COORDINATED_UNIVERSAL_TIME_OFFSET(5,0,.BEHIND.);
#2590=LOCAL_TIME(13,45,20.,#2580);
#2600=DATE_AND_TIME(#2570,#2590);
#2610=DATE_TIME_ROLE('classification_date');
#2620=CC_DESIGN_DATE_AND_TIME_ASSIGNMENT(#2600,#2610,(#2500));
#2630=PERSON(' ',' ',' ',$,$,$);
#2640=ORGANIZATION(' ',' ',' ');
#2650=PERSON_AND_ORGANIZATION(#2630,#2640);
#2660=APPROVAL_STATUS('approved');
#2670=APPROVAL(#2660,' ');
#2680=CALENDAR_DATE(1993,19,7);
#2690=COORDINATED_UNIVERSAL_TIME_OFFSET(5,0,.BEHIND.);
#2700=LOCAL_TIME(19,47,51.,#2690);
#2710=DATE_AND_TIME(#2680,#2700);
#2720=APPROVAL_DATE_TIME(#2710,#2670);
#2730=APPROVAL_ROLE('APPROVER');
#2740=APPROVAL_PERSON_ORGANIZATION(#2650,#2670,#2730);
#2750=CC_DESIGN_APPROVAL(#2670,(#2300));
#2760=PERSON(' ',' ',' ',$,$,$);
#2770=ORGANIZATION(' ',' ',' ');
#2780=PERSON_AND_ORGANIZATION(#2760,#2770);
#2790=APPROVAL_STATUS('approved');
#2800=APPROVAL(#2790,' ');
#2810=CALENDAR_DATE(1993,17,7);
#2820=COORDINATED_UNIVERSAL_TIME_OFFSET(5,0,.BEHIND.);
#2830=LOCAL_TIME(13,29,52.,#2820);
#2840=DATE_AND_TIME(#2810,#2830);
#2850=APPROVAL_DATE_TIME(#2840,#2800);
#2860=APPROVAL_ROLE('APPROVER');
#2870=APPROVAL_PERSON_ORGANIZATION(#2780,#2800,#2860);
#2880=CC_DESIGN_APPROVAL(#2800,(#2240));
#2890=PERSON(' ',' ',' ',$,$,$);
#2900=ORGANIZATION(' ',' ',' ');
#2910=PERSON_AND_ORGANIZATION(#2890,#2900);
#2920=APPROVAL_STATUS('approved');
#2930=APPROVAL(#2920,' ');
#2940=CALENDAR_DATE(1993,17,7);
#2950=COORDINATED_UNIVERSAL_TIME_OFFSET(5,0,.BEHIND.);
#2960=LOCAL_TIME(13,47,28.,#2950);
#2970=DATE_AND_TIME(#2940,#2960);
#2980=APPROVAL_DATE_TIME(#2970,#2930);
#2990=APPROVAL_ROLE('APPROVER');
#3000=APPROVAL_PERSON_ORGANIZATION(#2910,#2930,#2990);
#3010=CC_DESIGN_APPROVAL(#2930,(#2500));
#3020=DIMENSIONAL_EXPONENTS(1.,0.,0.,0.,0.,0.,0.);
#3030=DIMENSIONAL_EXPONENTS(0.,0.,0.,0.,0.,0.,0.);
#3040=DIMENSIONAL_EXPONENTS(0.,0.,0.,0.,0.,0.,0.);
#3050=(LENGTH_UNIT() NAMED_UNIT(*) SI_UNIT(.MILLI.,.METRE.));
#3060=(NAMED_UNIT(*) PLANE_ANGLE_UNIT() SI_UNIT($,.RADIAN.));
#3070=(NAMED_UNIT(*) SI_UNIT($,.STERADIAN.) SOLID_ANGLE_UNIT());
#3080=(GEOMETRIC_REPRESENTATION_CONTEXT(3) 
GLOBAL_UNCERTAINTY_ASSIGNED_CONTEXT((#3090)) 
GLOBAL_UNIT_ASSIGNED_CONTEXT((#3050,#3060,#3070)) REPRESENTATION_CONTEXT
('',''));
#3090=UNCERTAINTY_MEASURE_WITH_UNIT(LENGTH_MEASURE(1.E-6),#3050,
'closure','maximum gap value');
#3100=SHAPE_REPRESENTATION('',(#1050,#2160),#3080);
#3110=SHAPE_DEFINITION_REPRESENTATION(#2310,#3100);
#3120=(REPRESENTATION_RELATIONSHIP('','',#1980,#3100) 
REPRESENTATION_RELATIONSHIP_WITH_TRANSFORMATION(#2170) 
SHAPE_REPRESENTATION_RELATIONSHIP());
#3130=NEXT_ASSEMBLY_USAGE_OCCURRENCE('1','','0201689_mps_ih_bu',#2300,
#1180,'');
#3140=PRODUCT_DEFINITION_SHAPE('','',#3130);
#3150=CONTEXT_DEPENDENT_SHAPE_REPRESENTATION(#3120,#3140);
#3160=SECURITY_CLASSIFICATION_LEVEL('unclassified');
#3170=SECURITY_CLASSIFICATION(' ',' ',#3160);
#3180=CC_DESIGN_SECURITY_CLASSIFICATION(#3170,(#3130));
#3190=PERSON(' ',' ',' ',$,$,$);
#3200=ORGANIZATION(' ',' ','');
#3210=PERSON_AND_ORGANIZATION(#3190,#3200);
#3220=PERSON_AND_ORGANIZATION_ROLE('classification_officer');
#3230=CC_DESIGN_PERSON_AND_ORGANIZATION_ASSIGNMENT(#3210,#3220,(#3170));
#3240=CALENDAR_DATE(1993,17,7);
#3250=COORDINATED_UNIVERSAL_TIME_OFFSET(5,0,.BEHIND.);
#3260=LOCAL_TIME(13,45,20.,#3250);
#3270=DATE_AND_TIME(#3240,#3260);
#3280=DATE_TIME_ROLE('classification_date');
#3290=CC_DESIGN_DATE_AND_TIME_ASSIGNMENT(#3270,#3280,(#3170));
#3300=PERSON(' ',' ',' ',$,$,$);
#3310=ORGANIZATION(' ',' ',' ');
#3320=PERSON_AND_ORGANIZATION(#3300,#3310);
#3330=APPROVAL_STATUS('approved');
#3340=APPROVAL(#3330,' ');
#3350=CALENDAR_DATE(1993,19,7);
#3360=COORDINATED_UNIVERSAL_TIME_OFFSET(5,0,.BEHIND.);
#3370=LOCAL_TIME(19,47,51.,#3360);
#3380=DATE_AND_TIME(#3350,#3370);
#3390=APPROVAL_DATE_TIME(#3380,#3340);
#3400=APPROVAL_ROLE('APPROVER');
#3410=APPROVAL_PERSON_ORGANIZATION(#3320,#3340,#3400);
#3420=CC_DESIGN_APPROVAL(#3340,(#3170));
ENDSEC;
END-ISO-10303-21;
