ISO-10303-21;
HEADER;
FILE_DESCRIPTION(('SolidDesigner STEP Export'),'2;1');
FILE_NAME('1663239_CK4.0_ED_1.50ST_AG-select.stp','2014-02-18T 8:30:14',
(''),(''),
'Creo Elements/Direct Modeling STEP processor for AP214 (Solid Model)',
'Creo Elements/Direct Modeling 18.1B  29-Sep-2012 (C) Parametric Technol
ogy GmbH','');
FILE_SCHEMA(('AUTOMOTIVE_DESIGN { 1 0 10303 214 1 1 1 1 }'));
ENDSEC;
DATA;
#10=CARTESIAN_POINT('',(4.5,0.,0.));
#20=DIRECTION('',(1.,0.,0.));
#30=DIRECTION('',(0.,-1.,0.));
#40=AXIS2_PLACEMENT_3D('',#10,#20,#30);
#50=CYLINDRICAL_SURFACE('',#40,0.9);
#60=CARTESIAN_POINT('',(4.5,0.9,-1.10218211923262E-16));
#70=DIRECTION('',(1.,0.,0.));
#80=VECTOR('',#70,1.);
#90=LINE('',#60,#80);
#100=CARTESIAN_POINT('',(0.,0.9,-1.10218211923262E-16));
#110=VERTEX_POINT('',#100);
#120=CARTESIAN_POINT('',(9.,0.9,-1.10218211923262E-16));
#130=VERTEX_POINT('',#120);
#140=EDGE_CURVE('',#110,#130,#90,.T.);
#150=ORIENTED_EDGE('',*,*,#140,.T.);
#160=CARTESIAN_POINT('',(0.,0.,0.));
#170=DIRECTION('',(1.,0.,0.));
#180=DIRECTION('',(0.,-1.,0.));
#190=AXIS2_PLACEMENT_3D('',#160,#170,#180);
#200=CIRCLE('',#190,0.9);
#210=CARTESIAN_POINT('',(0.,-0.9,0.));
#220=VERTEX_POINT('',#210);
#230=EDGE_CURVE('',#110,#220,#200,.T.);
#240=ORIENTED_EDGE('',*,*,#230,.F.);
#250=CARTESIAN_POINT('',(4.5,-0.9,0.));
#260=DIRECTION('',(1.,0.,0.));
#270=VECTOR('',#260,1.);
#280=LINE('',#250,#270);
#290=CARTESIAN_POINT('',(9.,-0.9,0.));
#300=VERTEX_POINT('',#290);
#310=EDGE_CURVE('',#220,#300,#280,.T.);
#320=ORIENTED_EDGE('',*,*,#310,.F.);
#330=CARTESIAN_POINT('',(9.,0.,0.));
#340=DIRECTION('',(1.,0.,0.));
#350=DIRECTION('',(0.,-1.,0.));
#360=AXIS2_PLACEMENT_3D('',#330,#340,#350);
#370=CIRCLE('',#360,0.9);
#380=EDGE_CURVE('',#130,#300,#370,.T.);
#390=ORIENTED_EDGE('',*,*,#380,.T.);
#400=EDGE_LOOP('',(#390,#320,#240,#150));
#410=FACE_OUTER_BOUND('',#400,.T.);
#420=ADVANCED_FACE('',(#410),#50,.F.);
#430=COLOUR_RGB('',0.831372618675232,0.850980460643768,0.858823597431183
);
#440=FILL_AREA_STYLE_COLOUR('',#430);
#450=FILL_AREA_STYLE('',(#440));
#460=SURFACE_STYLE_FILL_AREA(#450);
#470=SURFACE_SIDE_STYLE('',(#460));
#480=SURFACE_STYLE_USAGE(.BOTH.,#470);
#490=PRESENTATION_STYLE_ASSIGNMENT((#480));
#500=CARTESIAN_POINT('',(9.,0.55,0.));
#510=DIRECTION('',(1.,0.,0.));
#520=DIRECTION('',(0.,-1.,0.));
#530=AXIS2_PLACEMENT_3D('',#500,#510,#520);
#540=PLANE('',#530);
#550=EDGE_CURVE('',#300,#130,#370,.T.);
#560=ORIENTED_EDGE('',*,*,#550,.F.);
#570=ORIENTED_EDGE('',*,*,#380,.F.);
#580=EDGE_LOOP('',(#570,#560));
#590=FACE_OUTER_BOUND('',#580,.T.);
#600=ADVANCED_FACE('',(#590),#540,.F.);
#610=COLOUR_RGB('',0.831372618675232,0.850980460643768,0.858823597431183
);
#620=FILL_AREA_STYLE_COLOUR('',#610);
#630=FILL_AREA_STYLE('',(#620));
#640=SURFACE_STYLE_FILL_AREA(#630);
#650=SURFACE_SIDE_STYLE('',(#640));
#660=SURFACE_STYLE_USAGE(.BOTH.,#650);
#670=PRESENTATION_STYLE_ASSIGNMENT((#660));
#680=CARTESIAN_POINT('',(0.631939203391614,0.,0.));
#690=DIRECTION('',(-1.,0.,0.));
#700=DIRECTION('',(0.,1.,0.));
#710=AXIS2_PLACEMENT_3D('',#680,#690,#700);
#720=CYLINDRICAL_SURFACE('',#710,3.);
#730=CARTESIAN_POINT('',(0.631939203391614,-3.,-3.67394039744206E-16));
#740=DIRECTION('',(-1.,0.,0.));
#750=VECTOR('',#740,1.);
#760=LINE('',#730,#750);
#770=CARTESIAN_POINT('',(1.13397459621556,-3.,-3.67394039744206E-16));
#780=VERTEX_POINT('',#770);
#790=CARTESIAN_POINT('',(0.,-3.,-3.67394039744206E-16));
#800=VERTEX_POINT('',#790);
#810=EDGE_CURVE('',#780,#800,#760,.T.);
#820=ORIENTED_EDGE('',*,*,#810,.T.);
#830=CARTESIAN_POINT('',(1.13397459621556,0.,0.));
#840=DIRECTION('',(1.,0.,0.));
#850=DIRECTION('',(0.,1.,0.));
#860=AXIS2_PLACEMENT_3D('',#830,#840,#850);
#870=CIRCLE('',#860,3.);
#880=CARTESIAN_POINT('',(1.13397459621556,3.,0.));
#890=VERTEX_POINT('',#880);
#900=EDGE_CURVE('',#780,#890,#870,.T.);
#910=ORIENTED_EDGE('',*,*,#900,.F.);
#920=CARTESIAN_POINT('',(0.631939203391614,3.,0.));
#930=DIRECTION('',(-1.,0.,0.));
#940=VECTOR('',#930,1.);
#950=LINE('',#920,#940);
#960=CARTESIAN_POINT('',(0.,3.,0.));
#970=VERTEX_POINT('',#960);
#980=EDGE_CURVE('',#890,#970,#950,.T.);
#990=ORIENTED_EDGE('',*,*,#980,.F.);
#1000=CARTESIAN_POINT('',(0.,0.,0.));
#1010=DIRECTION('',(1.,0.,0.));
#1020=DIRECTION('',(0.,1.,0.));
#1030=AXIS2_PLACEMENT_3D('',#1000,#1010,#1020);
#1040=CIRCLE('',#1030,3.);
#1050=EDGE_CURVE('',#800,#970,#1040,.T.);
#1060=ORIENTED_EDGE('',*,*,#1050,.T.);
#1070=EDGE_LOOP('',(#1060,#990,#910,#820));
#1080=FACE_OUTER_BOUND('',#1070,.T.);
#1090=ADVANCED_FACE('',(#1080),#720,.T.);
#1100=COLOUR_RGB('',0.831372618675232,0.850980460643768,
0.858823597431183);
#1110=FILL_AREA_STYLE_COLOUR('',#1100);
#1120=FILL_AREA_STYLE('',(#1110));
#1130=SURFACE_STYLE_FILL_AREA(#1120);
#1140=SURFACE_SIDE_STYLE('',(#1130));
#1150=SURFACE_STYLE_USAGE(.BOTH.,#1140);
#1160=PRESENTATION_STYLE_ASSIGNMENT((#1150));
#1170=CARTESIAN_POINT('',(0.,2.05,0.));
#1180=DIRECTION('',(-1.,0.,0.));
#1190=DIRECTION('',(0.,1.,0.));
#1200=AXIS2_PLACEMENT_3D('',#1170,#1180,#1190);
#1210=PLANE('',#1200);
#1220=EDGE_CURVE('',#220,#110,#200,.T.);
#1230=ORIENTED_EDGE('',*,*,#1220,.T.);
#1240=ORIENTED_EDGE('',*,*,#230,.T.);
#1250=EDGE_LOOP('',(#1240,#1230));
#1260=FACE_BOUND('',#1250,.T.);
#1270=EDGE_CURVE('',#970,#800,#1040,.T.);
#1280=ORIENTED_EDGE('',*,*,#1270,.F.);
#1290=ORIENTED_EDGE('',*,*,#1050,.F.);
#1300=EDGE_LOOP('',(#1290,#1280));
#1310=FACE_OUTER_BOUND('',#1300,.T.);
#1320=ADVANCED_FACE('',(#1260,#1310),#1210,.T.);
#1330=COLOUR_RGB('',0.831372618675232,0.850980460643768,
0.858823597431183);
#1340=FILL_AREA_STYLE_COLOUR('',#1330);
#1350=FILL_AREA_STYLE('',(#1340));
#1360=SURFACE_STYLE_FILL_AREA(#1350);
#1370=SURFACE_SIDE_STYLE('',(#1360));
#1380=SURFACE_STYLE_USAGE(.BOTH.,#1370);
#1390=PRESENTATION_STYLE_ASSIGNMENT((#1380));
#1400=CARTESIAN_POINT('',(15.75,0.,0.));
#1410=DIRECTION('',(-1.,0.,0.));
#1420=DIRECTION('',(0.,1.,0.));
#1430=AXIS2_PLACEMENT_3D('',#1400,#1410,#1420);
#1440=CYLINDRICAL_SURFACE('',#1430,3.);
#1450=CARTESIAN_POINT('',(15.75,-3.,-3.67394039744206E-16));
#1460=DIRECTION('',(-1.,0.,0.));
#1470=VECTOR('',#1460,1.);
#1480=LINE('',#1450,#1470);
#1490=CARTESIAN_POINT('',(10.5,-3.,-3.67394039744206E-16));
#1500=VERTEX_POINT('',#1490);
#1510=CARTESIAN_POINT('',(8.,-3.,-3.67394039744206E-16));
#1520=VERTEX_POINT('',#1510);
#1530=EDGE_CURVE('',#1500,#1520,#1480,.T.);
#1540=ORIENTED_EDGE('',*,*,#1530,.F.);
#1550=CARTESIAN_POINT('',(8.,0.,0.));
#1560=DIRECTION('',(1.,0.,0.));
#1570=DIRECTION('',(0.,1.,0.));
#1580=AXIS2_PLACEMENT_3D('',#1550,#1560,#1570);
#1590=CIRCLE('',#1580,3.);
#1600=CARTESIAN_POINT('',(8.,3.,0.));
#1610=VERTEX_POINT('',#1600);
#1620=EDGE_CURVE('',#1610,#1520,#1590,.T.);
#1630=ORIENTED_EDGE('',*,*,#1620,.T.);
#1640=CARTESIAN_POINT('',(15.75,3.,0.));
#1650=DIRECTION('',(-1.,0.,0.));
#1660=VECTOR('',#1650,1.);
#1670=LINE('',#1640,#1660);
#1680=CARTESIAN_POINT('',(10.5,3.,0.));
#1690=VERTEX_POINT('',#1680);
#1700=EDGE_CURVE('',#1690,#1610,#1670,.T.);
#1710=ORIENTED_EDGE('',*,*,#1700,.T.);
#1720=CARTESIAN_POINT('',(10.5,0.,0.));
#1730=DIRECTION('',(-1.,0.,0.));
#1740=DIRECTION('',(0.,1.,0.));
#1750=AXIS2_PLACEMENT_3D('',#1720,#1730,#1740);
#1760=CIRCLE('',#1750,3.);
#1770=EDGE_CURVE('',#1500,#1690,#1760,.T.);
#1780=ORIENTED_EDGE('',*,*,#1770,.T.);
#1790=EDGE_LOOP('',(#1780,#1710,#1630,#1540));
#1800=FACE_OUTER_BOUND('',#1790,.T.);
#1810=ADVANCED_FACE('',(#1800),#1440,.T.);
#1820=COLOUR_RGB('',0.831372618675232,0.850980460643768,
0.858823597431183);
#1830=FILL_AREA_STYLE_COLOUR('',#1820);
#1840=FILL_AREA_STYLE('',(#1830));
#1850=SURFACE_STYLE_FILL_AREA(#1840);
#1860=SURFACE_SIDE_STYLE('',(#1850));
#1870=SURFACE_STYLE_USAGE(.BOTH.,#1860);
#1880=PRESENTATION_STYLE_ASSIGNMENT((#1870));
#1890=CARTESIAN_POINT('',(1.13397459621556,0.,0.));
#1900=DIRECTION('',(-1.,0.,0.));
#1910=DIRECTION('',(0.,1.,0.));
#1920=AXIS2_PLACEMENT_3D('',#1890,#1900,#1910);
#1930=CONICAL_SURFACE('',#1920,3.,1.0471975511966);
#1940=CARTESIAN_POINT('',(1.13397459621556,-3.,-3.67394039744206E-16));
#1950=DIRECTION('',(-0.5,-0.866025403784439,-1.06057523872491E-16));
#1960=VECTOR('',#1950,3.46410161513775);
#1970=LINE('',#1940,#1960);
#1980=CARTESIAN_POINT('',(2.,-1.5,-1.83697019872103E-16));
#1990=VERTEX_POINT('',#1980);
#2000=EDGE_CURVE('',#1990,#780,#1970,.T.);
#2010=ORIENTED_EDGE('',*,*,#2000,.T.);
#2020=CARTESIAN_POINT('',(2.,0.,0.));
#2030=DIRECTION('',(-1.,0.,0.));
#2040=DIRECTION('',(0.,1.,0.));
#2050=AXIS2_PLACEMENT_3D('',#2020,#2030,#2040);
#2060=CIRCLE('',#2050,1.5);
#2070=CARTESIAN_POINT('',(2.,1.5,0.));
#2080=VERTEX_POINT('',#2070);
#2090=EDGE_CURVE('',#2080,#1990,#2060,.T.);
#2100=ORIENTED_EDGE('',*,*,#2090,.T.);
#2110=CARTESIAN_POINT('',(1.13397459621556,3.,0.));
#2120=DIRECTION('',(-0.5,0.866025403784439,0.));
#2130=VECTOR('',#2120,3.46410161513775);
#2140=LINE('',#2110,#2130);
#2150=EDGE_CURVE('',#2080,#890,#2140,.T.);
#2160=ORIENTED_EDGE('',*,*,#2150,.F.);
#2170=ORIENTED_EDGE('',*,*,#900,.T.);
#2180=EDGE_LOOP('',(#2170,#2160,#2100,#2010));
#2190=FACE_OUTER_BOUND('',#2180,.T.);
#2200=ADVANCED_FACE('',(#2190),#1930,.T.);
#2210=COLOUR_RGB('',0.831372618675232,0.850980460643768,
0.858823597431183);
#2220=FILL_AREA_STYLE_COLOUR('',#2210);
#2230=FILL_AREA_STYLE('',(#2220));
#2240=SURFACE_STYLE_FILL_AREA(#2230);
#2250=SURFACE_SIDE_STYLE('',(#2240));
#2260=SURFACE_STYLE_USAGE(.BOTH.,#2250);
#2270=PRESENTATION_STYLE_ASSIGNMENT((#2260));
#2280=CARTESIAN_POINT('',(8.,2.3625,0.));
#2290=DIRECTION('',(-1.,0.,0.));
#2300=DIRECTION('',(0.,1.,0.));
#2310=AXIS2_PLACEMENT_3D('',#2280,#2290,#2300);
#2320=PLANE('',#2310);
#2330=CARTESIAN_POINT('',(8.,0.,0.));
#2340=DIRECTION('',(-1.,0.,0.));
#2350=DIRECTION('',(0.,1.,0.));
#2360=AXIS2_PLACEMENT_3D('',#2330,#2340,#2350);
#2370=CIRCLE('',#2360,1.5);
#2380=CARTESIAN_POINT('',(8.,1.5,0.));
#2390=VERTEX_POINT('',#2380);
#2400=CARTESIAN_POINT('',(8.,-1.5,-1.83697019872103E-16));
#2410=VERTEX_POINT('',#2400);
#2420=EDGE_CURVE('',#2390,#2410,#2370,.T.);
#2430=ORIENTED_EDGE('',*,*,#2420,.F.);
#2440=EDGE_CURVE('',#2410,#2390,#2370,.T.);
#2450=ORIENTED_EDGE('',*,*,#2440,.F.);
#2460=EDGE_LOOP('',(#2450,#2430));
#2470=FACE_BOUND('',#2460,.T.);
#2480=ORIENTED_EDGE('',*,*,#1620,.F.);
#2490=EDGE_CURVE('',#1520,#1610,#1590,.T.);
#2500=ORIENTED_EDGE('',*,*,#2490,.F.);
#2510=EDGE_LOOP('',(#2500,#2480));
#2520=FACE_OUTER_BOUND('',#2510,.T.);
#2530=ADVANCED_FACE('',(#2470,#2520),#2320,.T.);
#2540=COLOUR_RGB('',0.831372618675232,0.850980460643768,
0.858823597431183);
#2550=FILL_AREA_STYLE_COLOUR('',#2540);
#2560=FILL_AREA_STYLE('',(#2550));
#2570=SURFACE_STYLE_FILL_AREA(#2560);
#2580=SURFACE_SIDE_STYLE('',(#2570));
#2590=SURFACE_STYLE_USAGE(.BOTH.,#2580);
#2600=PRESENTATION_STYLE_ASSIGNMENT((#2590));
#2610=CARTESIAN_POINT('',(5.,0.,0.));
#2620=DIRECTION('',(-1.,0.,0.));
#2630=DIRECTION('',(0.,1.,0.));
#2640=AXIS2_PLACEMENT_3D('',#2610,#2620,#2630);
#2650=CYLINDRICAL_SURFACE('',#2640,1.5);
#2660=CARTESIAN_POINT('',(5.,1.5,0.));
#2670=DIRECTION('',(-1.,0.,0.));
#2680=VECTOR('',#2670,1.);
#2690=LINE('',#2660,#2680);
#2700=EDGE_CURVE('',#2390,#2080,#2690,.T.);
#2710=ORIENTED_EDGE('',*,*,#2700,.T.);
#2720=ORIENTED_EDGE('',*,*,#2440,.T.);
#2730=CARTESIAN_POINT('',(5.,-1.5,-1.83697019872103E-16));
#2740=DIRECTION('',(-1.,0.,0.));
#2750=VECTOR('',#2740,1.);
#2760=LINE('',#2730,#2750);
#2770=EDGE_CURVE('',#2410,#1990,#2760,.T.);
#2780=ORIENTED_EDGE('',*,*,#2770,.F.);
#2790=EDGE_CURVE('',#1990,#2080,#2060,.T.);
#2800=ORIENTED_EDGE('',*,*,#2790,.F.);
#2810=EDGE_LOOP('',(#2800,#2780,#2720,#2710));
#2820=FACE_OUTER_BOUND('',#2810,.T.);
#2830=ADVANCED_FACE('',(#2820),#2650,.T.);
#2840=COLOUR_RGB('',0.831372618675232,0.850980460643768,
0.858823597431183);
#2850=FILL_AREA_STYLE_COLOUR('',#2840);
#2860=FILL_AREA_STYLE('',(#2850));
#2870=SURFACE_STYLE_FILL_AREA(#2860);
#2880=SURFACE_SIDE_STYLE('',(#2870));
#2890=SURFACE_STYLE_USAGE(.BOTH.,#2880);
#2900=PRESENTATION_STYLE_ASSIGNMENT((#2890));
#2910=CARTESIAN_POINT('',(2.99999999999999,0.,0.));
#2920=DIRECTION('',(-1.,0.,0.));
#2930=DIRECTION('',(0.,1.,0.));
#2940=AXIS2_PLACEMENT_3D('',#2910,#2920,#2930);
#2950=CONICAL_SURFACE('',#2940,10.5,0.785398163397448);
#2960=CARTESIAN_POINT('',(2.99999999999999,10.5,0.));
#2970=DIRECTION('',(-0.707106781186548,0.707106781186547,0.));
#2980=VECTOR('',#2970,14.8492424049175);
#2990=LINE('',#2960,#2980);
#3000=CARTESIAN_POINT('',(11.5,2.,0.));
#3010=VERTEX_POINT('',#3000);
#3020=EDGE_CURVE('',#3010,#1690,#2990,.T.);
#3030=ORIENTED_EDGE('',*,*,#3020,.F.);
#3040=EDGE_CURVE('',#1690,#1500,#1760,.T.);
#3050=ORIENTED_EDGE('',*,*,#3040,.F.);
#3060=CARTESIAN_POINT('',(2.99999999999999,-10.5,-1.28587913910472E-15))
;
#3070=DIRECTION('',(-0.707106781186548,-0.707106781186547,
-8.65956056235493E-17));
#3080=VECTOR('',#3070,14.8492424049175);
#3090=LINE('',#3060,#3080);
#3100=CARTESIAN_POINT('',(11.5,-2.,-2.4492935982947E-16));
#3110=VERTEX_POINT('',#3100);
#3120=EDGE_CURVE('',#3110,#1500,#3090,.T.);
#3130=ORIENTED_EDGE('',*,*,#3120,.T.);
#3140=CARTESIAN_POINT('',(11.5,0.,0.));
#3150=DIRECTION('',(1.,0.,0.));
#3160=DIRECTION('',(0.,1.,0.));
#3170=AXIS2_PLACEMENT_3D('',#3140,#3150,#3160);
#3180=CIRCLE('',#3170,2.);
#3190=EDGE_CURVE('',#3110,#3010,#3180,.T.);
#3200=ORIENTED_EDGE('',*,*,#3190,.F.);
#3210=EDGE_LOOP('',(#3200,#3130,#3050,#3030));
#3220=FACE_OUTER_BOUND('',#3210,.T.);
#3230=ADVANCED_FACE('',(#3220),#2950,.T.);
#3240=COLOUR_RGB('',0.831372618675232,0.850980460643768,
0.858823597431183);
#3250=FILL_AREA_STYLE_COLOUR('',#3240);
#3260=FILL_AREA_STYLE('',(#3250));
#3270=SURFACE_STYLE_FILL_AREA(#3260);
#3280=SURFACE_SIDE_STYLE('',(#3270));
#3290=SURFACE_STYLE_USAGE(.BOTH.,#3280);
#3300=PRESENTATION_STYLE_ASSIGNMENT((#3290));
#3310=CARTESIAN_POINT('',(19.25,0.,0.));
#3320=DIRECTION('',(1.,0.,0.));
#3330=DIRECTION('',(0.,-1.,0.));
#3340=AXIS2_PLACEMENT_3D('',#3310,#3320,#3330);
#3350=CYLINDRICAL_SURFACE('',#3340,2.);
#3360=CARTESIAN_POINT('',(19.25,2.,-2.44929359829471E-16));
#3370=DIRECTION('',(1.,0.,0.));
#3380=VECTOR('',#3370,1.);
#3390=LINE('',#3360,#3380);
#3400=CARTESIAN_POINT('',(27.,2.,0.));
#3410=VERTEX_POINT('',#3400);
#3420=EDGE_CURVE('',#3010,#3410,#3390,.T.);
#3430=ORIENTED_EDGE('',*,*,#3420,.T.);
#3440=ORIENTED_EDGE('',*,*,#3190,.T.);
#3450=CARTESIAN_POINT('',(19.25,-2.,0.));
#3460=DIRECTION('',(1.,0.,0.));
#3470=VECTOR('',#3460,1.);
#3480=LINE('',#3450,#3470);
#3490=CARTESIAN_POINT('',(27.,-2.,0.));
#3500=VERTEX_POINT('',#3490);
#3510=EDGE_CURVE('',#3110,#3500,#3480,.T.);
#3520=ORIENTED_EDGE('',*,*,#3510,.F.);
#3530=CARTESIAN_POINT('',(27.,0.,0.));
#3540=DIRECTION('',(1.,0.,0.));
#3550=DIRECTION('',(0.,1.,0.));
#3560=AXIS2_PLACEMENT_3D('',#3530,#3540,#3550);
#3570=CIRCLE('',#3560,2.);
#3580=EDGE_CURVE('',#3500,#3410,#3570,.T.);
#3590=ORIENTED_EDGE('',*,*,#3580,.F.);
#3600=EDGE_LOOP('',(#3590,#3520,#3440,#3430));
#3610=FACE_OUTER_BOUND('',#3600,.T.);
#3620=ADVANCED_FACE('',(#3610),#3350,.T.);
#3630=COLOUR_RGB('',0.831372618675232,0.850980460643768,
0.858823597431183);
#3640=FILL_AREA_STYLE_COLOUR('',#3630);
#3650=FILL_AREA_STYLE('',(#3640));
#3660=SURFACE_STYLE_FILL_AREA(#3650);
#3670=SURFACE_SIDE_STYLE('',(#3660));
#3680=SURFACE_STYLE_USAGE(.BOTH.,#3670);
#3690=PRESENTATION_STYLE_ASSIGNMENT((#3680));
#3700=CARTESIAN_POINT('',(27.,0.,0.));
#3710=DIRECTION('',(1.,0.,0.));
#3720=DIRECTION('',(0.,-1.,0.));
#3730=AXIS2_PLACEMENT_3D('',#3700,#3710,#3720);
#3740=SPHERICAL_SURFACE('',#3730,2.);
#3750=CARTESIAN_POINT('',(27.,0.,0.));
#3760=DIRECTION('',(0.,0.,-1.));
#3770=DIRECTION('',(1.,-0.,0.));
#3780=AXIS2_PLACEMENT_3D('',#3750,#3760,#3770);
#3790=CIRCLE('',#3780,2.);
#3800=CARTESIAN_POINT('',(29.,4.89858719658941E-16,0.));
#3810=VERTEX_POINT('',#3800);
#3820=EDGE_CURVE('',#3810,#3500,#3790,.T.);
#3830=ORIENTED_EDGE('',*,*,#3820,.T.);
#3840=EDGE_CURVE('',#3410,#3810,#3790,.T.);
#3850=ORIENTED_EDGE('',*,*,#3840,.T.);
#3860=ORIENTED_EDGE('',*,*,#3580,.T.);
#3870=EDGE_LOOP('',(#3860,#3850,#3830));
#3880=FACE_OUTER_BOUND('',#3870,.T.);
#3890=ADVANCED_FACE('',(#3880),#3740,.T.);
#3900=COLOUR_RGB('',0.831372618675232,0.850980460643768,
0.858823597431183);
#3910=FILL_AREA_STYLE_COLOUR('',#3900);
#3920=FILL_AREA_STYLE('',(#3910));
#3930=SURFACE_STYLE_FILL_AREA(#3920);
#3940=SURFACE_SIDE_STYLE('',(#3930));
#3950=SURFACE_STYLE_USAGE(.BOTH.,#3940);
#3960=PRESENTATION_STYLE_ASSIGNMENT((#3950));
#3970=CARTESIAN_POINT('',(4.5,0.,0.));
#3980=DIRECTION('',(1.,0.,0.));
#3990=DIRECTION('',(0.,-1.,0.));
#4000=AXIS2_PLACEMENT_3D('',#3970,#3980,#3990);
#4010=CYLINDRICAL_SURFACE('',#4000,0.9);
#4020=ORIENTED_EDGE('',*,*,#1220,.F.);
#4030=ORIENTED_EDGE('',*,*,#140,.F.);
#4040=ORIENTED_EDGE('',*,*,#550,.T.);
#4050=ORIENTED_EDGE('',*,*,#310,.T.);
#4060=EDGE_LOOP('',(#4050,#4040,#4030,#4020));
#4070=FACE_OUTER_BOUND('',#4060,.T.);
#4080=ADVANCED_FACE('',(#4070),#4010,.F.);
#4090=COLOUR_RGB('',0.831372618675232,0.850980460643768,
0.858823597431183);
#4100=FILL_AREA_STYLE_COLOUR('',#4090);
#4110=FILL_AREA_STYLE('',(#4100));
#4120=SURFACE_STYLE_FILL_AREA(#4110);
#4130=SURFACE_SIDE_STYLE('',(#4120));
#4140=SURFACE_STYLE_USAGE(.BOTH.,#4130);
#4150=PRESENTATION_STYLE_ASSIGNMENT((#4140));
#4160=CARTESIAN_POINT('',(5.,0.,0.));
#4170=DIRECTION('',(-1.,0.,0.));
#4180=DIRECTION('',(0.,1.,0.));
#4190=AXIS2_PLACEMENT_3D('',#4160,#4170,#4180);
#4200=CYLINDRICAL_SURFACE('',#4190,1.5);
#4210=ORIENTED_EDGE('',*,*,#2090,.F.);
#4220=ORIENTED_EDGE('',*,*,#2770,.T.);
#4230=ORIENTED_EDGE('',*,*,#2420,.T.);
#4240=ORIENTED_EDGE('',*,*,#2700,.F.);
#4250=EDGE_LOOP('',(#4240,#4230,#4220,#4210));
#4260=FACE_OUTER_BOUND('',#4250,.T.);
#4270=ADVANCED_FACE('',(#4260),#4200,.T.);
#4280=COLOUR_RGB('',0.831372618675232,0.850980460643768,
0.858823597431183);
#4290=FILL_AREA_STYLE_COLOUR('',#4280);
#4300=FILL_AREA_STYLE('',(#4290));
#4310=SURFACE_STYLE_FILL_AREA(#4300);
#4320=SURFACE_SIDE_STYLE('',(#4310));
#4330=SURFACE_STYLE_USAGE(.BOTH.,#4320);
#4340=PRESENTATION_STYLE_ASSIGNMENT((#4330));
#4350=CARTESIAN_POINT('',(19.25,0.,0.));
#4360=DIRECTION('',(1.,0.,0.));
#4370=DIRECTION('',(0.,-1.,0.));
#4380=AXIS2_PLACEMENT_3D('',#4350,#4360,#4370);
#4390=CYLINDRICAL_SURFACE('',#4380,2.);
#4400=EDGE_CURVE('',#3010,#3110,#3180,.T.);
#4410=ORIENTED_EDGE('',*,*,#4400,.T.);
#4420=ORIENTED_EDGE('',*,*,#3420,.F.);
#4430=EDGE_CURVE('',#3410,#3500,#3570,.T.);
#4440=ORIENTED_EDGE('',*,*,#4430,.F.);
#4450=ORIENTED_EDGE('',*,*,#3510,.T.);
#4460=EDGE_LOOP('',(#4450,#4440,#4420,#4410));
#4470=FACE_OUTER_BOUND('',#4460,.T.);
#4480=ADVANCED_FACE('',(#4470),#4390,.T.);
#4490=COLOUR_RGB('',0.831372618675232,0.850980460643768,
0.858823597431183);
#4500=FILL_AREA_STYLE_COLOUR('',#4490);
#4510=FILL_AREA_STYLE('',(#4500));
#4520=SURFACE_STYLE_FILL_AREA(#4510);
#4530=SURFACE_SIDE_STYLE('',(#4520));
#4540=SURFACE_STYLE_USAGE(.BOTH.,#4530);
#4550=PRESENTATION_STYLE_ASSIGNMENT((#4540));
#4560=CARTESIAN_POINT('',(1.13397459621556,0.,0.));
#4570=DIRECTION('',(-1.,0.,0.));
#4580=DIRECTION('',(0.,1.,0.));
#4590=AXIS2_PLACEMENT_3D('',#4560,#4570,#4580);
#4600=CONICAL_SURFACE('',#4590,3.,1.0471975511966);
#4610=ORIENTED_EDGE('',*,*,#2000,.F.);
#4620=EDGE_CURVE('',#890,#780,#870,.T.);
#4630=ORIENTED_EDGE('',*,*,#4620,.T.);
#4640=ORIENTED_EDGE('',*,*,#2150,.T.);
#4650=ORIENTED_EDGE('',*,*,#2790,.T.);
#4660=EDGE_LOOP('',(#4650,#4640,#4630,#4610));
#4670=FACE_OUTER_BOUND('',#4660,.T.);
#4680=ADVANCED_FACE('',(#4670),#4600,.T.);
#4690=COLOUR_RGB('',0.831372618675232,0.850980460643768,
0.858823597431183);
#4700=FILL_AREA_STYLE_COLOUR('',#4690);
#4710=FILL_AREA_STYLE('',(#4700));
#4720=SURFACE_STYLE_FILL_AREA(#4710);
#4730=SURFACE_SIDE_STYLE('',(#4720));
#4740=SURFACE_STYLE_USAGE(.BOTH.,#4730);
#4750=PRESENTATION_STYLE_ASSIGNMENT((#4740));
#4760=CARTESIAN_POINT('',(2.99999999999999,0.,0.));
#4770=DIRECTION('',(-1.,0.,0.));
#4780=DIRECTION('',(0.,1.,0.));
#4790=AXIS2_PLACEMENT_3D('',#4760,#4770,#4780);
#4800=CONICAL_SURFACE('',#4790,10.5,0.785398163397448);
#4810=ORIENTED_EDGE('',*,*,#3020,.T.);
#4820=ORIENTED_EDGE('',*,*,#4400,.F.);
#4830=ORIENTED_EDGE('',*,*,#3120,.F.);
#4840=ORIENTED_EDGE('',*,*,#1770,.F.);
#4850=EDGE_LOOP('',(#4840,#4830,#4820,#4810));
#4860=FACE_OUTER_BOUND('',#4850,.T.);
#4870=ADVANCED_FACE('',(#4860),#4800,.T.);
#4880=COLOUR_RGB('',0.831372618675232,0.850980460643768,
0.858823597431183);
#4890=FILL_AREA_STYLE_COLOUR('',#4880);
#4900=FILL_AREA_STYLE('',(#4890));
#4910=SURFACE_STYLE_FILL_AREA(#4900);
#4920=SURFACE_SIDE_STYLE('',(#4910));
#4930=SURFACE_STYLE_USAGE(.BOTH.,#4920);
#4940=PRESENTATION_STYLE_ASSIGNMENT((#4930));
#4950=CARTESIAN_POINT('',(0.631939203391614,0.,0.));
#4960=DIRECTION('',(-1.,0.,0.));
#4970=DIRECTION('',(0.,1.,0.));
#4980=AXIS2_PLACEMENT_3D('',#4950,#4960,#4970);
#4990=CYLINDRICAL_SURFACE('',#4980,3.);
#5000=ORIENTED_EDGE('',*,*,#4620,.F.);
#5010=ORIENTED_EDGE('',*,*,#810,.F.);
#5020=ORIENTED_EDGE('',*,*,#1270,.T.);
#5030=ORIENTED_EDGE('',*,*,#980,.T.);
#5040=EDGE_LOOP('',(#5030,#5020,#5010,#5000));
#5050=FACE_OUTER_BOUND('',#5040,.T.);
#5060=ADVANCED_FACE('',(#5050),#4990,.T.);
#5070=COLOUR_RGB('',0.831372618675232,0.850980460643768,
0.858823597431183);
#5080=FILL_AREA_STYLE_COLOUR('',#5070);
#5090=FILL_AREA_STYLE('',(#5080));
#5100=SURFACE_STYLE_FILL_AREA(#5090);
#5110=SURFACE_SIDE_STYLE('',(#5100));
#5120=SURFACE_STYLE_USAGE(.BOTH.,#5110);
#5130=PRESENTATION_STYLE_ASSIGNMENT((#5120));
#5140=CARTESIAN_POINT('',(15.75,0.,0.));
#5150=DIRECTION('',(-1.,0.,0.));
#5160=DIRECTION('',(0.,1.,0.));
#5170=AXIS2_PLACEMENT_3D('',#5140,#5150,#5160);
#5180=CYLINDRICAL_SURFACE('',#5170,3.);
#5190=ORIENTED_EDGE('',*,*,#1530,.T.);
#5200=ORIENTED_EDGE('',*,*,#3040,.T.);
#5210=ORIENTED_EDGE('',*,*,#1700,.F.);
#5220=ORIENTED_EDGE('',*,*,#2490,.T.);
#5230=EDGE_LOOP('',(#5220,#5210,#5200,#5190));
#5240=FACE_OUTER_BOUND('',#5230,.T.);
#5250=ADVANCED_FACE('',(#5240),#5180,.T.);
#5260=COLOUR_RGB('',0.831372618675232,0.850980460643768,
0.858823597431183);
#5270=FILL_AREA_STYLE_COLOUR('',#5260);
#5280=FILL_AREA_STYLE('',(#5270));
#5290=SURFACE_STYLE_FILL_AREA(#5280);
#5300=SURFACE_SIDE_STYLE('',(#5290));
#5310=SURFACE_STYLE_USAGE(.BOTH.,#5300);
#5320=PRESENTATION_STYLE_ASSIGNMENT((#5310));
#5330=CARTESIAN_POINT('',(27.,0.,0.));
#5340=DIRECTION('',(1.,0.,0.));
#5350=DIRECTION('',(0.,-1.,0.));
#5360=AXIS2_PLACEMENT_3D('',#5330,#5340,#5350);
#5370=SPHERICAL_SURFACE('',#5360,2.);
#5380=ORIENTED_EDGE('',*,*,#3820,.F.);
#5390=ORIENTED_EDGE('',*,*,#4430,.T.);
#5400=ORIENTED_EDGE('',*,*,#3840,.F.);
#5410=EDGE_LOOP('',(#5400,#5390,#5380));
#5420=FACE_OUTER_BOUND('',#5410,.T.);
#5430=ADVANCED_FACE('',(#5420),#5370,.T.);
#5440=COLOUR_RGB('',0.831372618675232,0.850980460643768,
0.858823597431183);
#5450=FILL_AREA_STYLE_COLOUR('',#5440);
#5460=FILL_AREA_STYLE('',(#5450));
#5470=SURFACE_STYLE_FILL_AREA(#5460);
#5480=SURFACE_SIDE_STYLE('',(#5470));
#5490=SURFACE_STYLE_USAGE(.BOTH.,#5480);
#5500=PRESENTATION_STYLE_ASSIGNMENT((#5490));
#5510=CLOSED_SHELL('',(#420,#600,#1090,#1320,#1810,#2200,#2530,#2830,
#3230,#3620,#3890,#4080,#4270,#4480,#4680,#4870,#5060,#5250,#5430));
#5520=MANIFOLD_SOLID_BREP('',#5510);
#5530=CARTESIAN_POINT('',(0.,0.,0.));
#5540=DIRECTION('',(0.,0.,1.));
#5550=DIRECTION('',(1.,0.,0.));
#5560=AXIS2_PLACEMENT_3D('',#5530,#5540,#5550);
#5570=APPLICATION_CONTEXT(' ');
#5580=APPLICATION_PROTOCOL_DEFINITION(' ','automotive_design',1998,#5570
);
#5590=PRODUCT_CONTEXT('',#5570,'mechanical');
#5600=PRODUCT_DEFINITION_CONTEXT('part definition',#5570,'design');
#5610=PRODUCT('1663239_CK4.0_ED_1.50ST_AG-select',
'1663239_CK4.0_ED_1.50ST_AG-select','',(#5590));
#5620=PRODUCT_RELATED_PRODUCT_CATEGORY('part',' ',(#5610));
#5630=PRODUCT_DEFINITION_FORMATION_WITH_SPECIFIED_SOURCE('','',#5610,
.BOUGHT.);
#5640=PRODUCT_DEFINITION('',' ',#5630,#5600);
#5650=PRODUCT_DEFINITION_SHAPE('','',#5640);
#5660=DIMENSIONAL_EXPONENTS(1.,0.,0.,0.,0.,0.,0.);
#5670=DIMENSIONAL_EXPONENTS(0.,0.,0.,0.,0.,0.,0.);
#5680=DIMENSIONAL_EXPONENTS(0.,0.,0.,0.,0.,0.,0.);
#5690=(LENGTH_UNIT() NAMED_UNIT(*) SI_UNIT(.MILLI.,.METRE.));
#5700=(NAMED_UNIT(*) PLANE_ANGLE_UNIT() SI_UNIT($,.RADIAN.));
#5710=(NAMED_UNIT(*) SI_UNIT($,.STERADIAN.) SOLID_ANGLE_UNIT());
#5720=(GEOMETRIC_REPRESENTATION_CONTEXT(3) 
GLOBAL_UNCERTAINTY_ASSIGNED_CONTEXT((#5730)) 
GLOBAL_UNIT_ASSIGNED_CONTEXT((#5690,#5700,#5710)) REPRESENTATION_CONTEXT
('',''));
#5730=UNCERTAINTY_MEASURE_WITH_UNIT(LENGTH_MEASURE(1.E-6),#5690,
'distance_accuracy_value','maximum gap value');
#5740=ADVANCED_BREP_SHAPE_REPRESENTATION('',(#5560,#5520),#5720);
#5750=SHAPE_DEFINITION_REPRESENTATION(#5650,#5740);
#5760=COLOUR_RGB('',0.831372618675232,0.850980460643768,
0.858823597431183);
#5770=FILL_AREA_STYLE_COLOUR('',#5760);
#5780=FILL_AREA_STYLE('',(#5770));
#5790=SURFACE_STYLE_FILL_AREA(#5780);
#5800=SURFACE_SIDE_STYLE('',(#5790));
#5810=SURFACE_STYLE_USAGE(.BOTH.,#5800);
#5820=PRESENTATION_STYLE_ASSIGNMENT((#5810));
#5830=STYLED_ITEM('',(#5820),#5520);
#5840=OVER_RIDING_STYLED_ITEM('',(#490),#420,#5830);
#5850=OVER_RIDING_STYLED_ITEM('',(#670),#600,#5830);
#5860=OVER_RIDING_STYLED_ITEM('',(#1160),#1090,#5830);
#5870=OVER_RIDING_STYLED_ITEM('',(#1390),#1320,#5830);
#5880=OVER_RIDING_STYLED_ITEM('',(#1880),#1810,#5830);
#5890=OVER_RIDING_STYLED_ITEM('',(#2270),#2200,#5830);
#5900=OVER_RIDING_STYLED_ITEM('',(#2600),#2530,#5830);
#5910=OVER_RIDING_STYLED_ITEM('',(#2900),#2830,#5830);
#5920=OVER_RIDING_STYLED_ITEM('',(#3300),#3230,#5830);
#5930=OVER_RIDING_STYLED_ITEM('',(#3690),#3620,#5830);
#5940=OVER_RIDING_STYLED_ITEM('',(#3960),#3890,#5830);
#5950=OVER_RIDING_STYLED_ITEM('',(#4150),#4080,#5830);
#5960=OVER_RIDING_STYLED_ITEM('',(#4340),#4270,#5830);
#5970=OVER_RIDING_STYLED_ITEM('',(#4550),#4480,#5830);
#5980=OVER_RIDING_STYLED_ITEM('',(#4750),#4680,#5830);
#5990=OVER_RIDING_STYLED_ITEM('',(#4940),#4870,#5830);
#6000=OVER_RIDING_STYLED_ITEM('',(#5130),#5060,#5830);
#6010=OVER_RIDING_STYLED_ITEM('',(#5320),#5250,#5830);
#6020=OVER_RIDING_STYLED_ITEM('',(#5500),#5430,#5830);
#6030=DRAUGHTING_MODEL('',(#5830,#5840,#5850,#5860,#5870,#5880,#5890,
#5900,#5910,#5920,#5930,#5940,#5950,#5960,#5970,#5980,#5990,#6000,#6010,
#6020),#5720);
ENDSEC;
END-ISO-10303-21;
