ISO-10303-21;
HEADER;
FILE_DESCRIPTION(('SolidDesigner STEP Export'),'2;1');
FILE_NAME('2700115_PSD_S_OE_LED_FL_RD-select.stp','2015-04-23T10:31:39',
(''),(''),
'Creo Elements/Direct Modeling STEP processor for AP214 (Solid Model)',
'Creo Elements/Direct Modeling 18.1  06-May-2012 (C) Parametric Technolo
gy GmbH','');
FILE_SCHEMA(('AUTOMOTIVE_DESIGN { 1 0 10303 214 1 1 1 1 }'));
ENDSEC;
DATA;
#10=CARTESIAN_POINT('',(0.,33.5,0.));
#20=DIRECTION('',(0.,-1.,0.));
#30=DIRECTION('',(1.,0.,0.));
#40=AXIS2_PLACEMENT_3D('',#10,#20,#30);
#50=CYLINDRICAL_SURFACE('',#40,33.1);
#60=CARTESIAN_POINT('',(-33.1,33.5,4.05358090517774E-15));
#70=DIRECTION('',(0.,-1.,0.));
#80=VECTOR('',#70,1.);
#90=LINE('',#60,#80);
#100=CARTESIAN_POINT('',(-33.1,55.,4.05358090517774E-15));
#110=VERTEX_POINT('',#100);
#120=CARTESIAN_POINT('',(-33.1,12.,4.05358090517774E-15));
#130=VERTEX_POINT('',#120);
#140=EDGE_CURVE('',#110,#130,#90,.T.);
#150=ORIENTED_EDGE('',*,*,#140,.F.);
#160=CARTESIAN_POINT('',(0.,12.,0.));
#170=DIRECTION('',(0.,-1.,0.));
#180=DIRECTION('',(1.,0.,0.));
#190=AXIS2_PLACEMENT_3D('',#160,#170,#180);
#200=CIRCLE('',#190,33.1);
#210=CARTESIAN_POINT('',(33.1,12.,0.));
#220=VERTEX_POINT('',#210);
#230=EDGE_CURVE('',#130,#220,#200,.T.);
#240=ORIENTED_EDGE('',*,*,#230,.F.);
#250=CARTESIAN_POINT('',(33.1,33.5,0.));
#260=DIRECTION('',(0.,-1.,0.));
#270=VECTOR('',#260,1.);
#280=LINE('',#250,#270);
#290=CARTESIAN_POINT('',(33.1,55.,0.));
#300=VERTEX_POINT('',#290);
#310=EDGE_CURVE('',#300,#220,#280,.T.);
#320=ORIENTED_EDGE('',*,*,#310,.T.);
#330=CARTESIAN_POINT('',(0.,55.,0.));
#340=DIRECTION('',(0.,-1.,0.));
#350=DIRECTION('',(1.,0.,0.));
#360=AXIS2_PLACEMENT_3D('',#330,#340,#350);
#370=CIRCLE('',#360,33.1);
#380=CARTESIAN_POINT('',(-32.8415785356483,55.,-4.1280406110947));
#390=VERTEX_POINT('',#380);
#400=EDGE_CURVE('',#390,#300,#370,.T.);
#410=ORIENTED_EDGE('',*,*,#400,.T.);
#420=CARTESIAN_POINT('',(-32.8415785356483,48.75,-4.12804061109473));
#430=DIRECTION('',(0.,1.,0.));
#440=VECTOR('',#430,1.);
#450=LINE('',#420,#440);
#460=CARTESIAN_POINT('',(-32.8415785356483,48.75,-4.12804061109471));
#470=VERTEX_POINT('',#460);
#480=EDGE_CURVE('',#470,#390,#450,.T.);
#490=ORIENTED_EDGE('',*,*,#480,.T.);
#500=CARTESIAN_POINT('',(0.,48.75,0.));
#510=DIRECTION('',(0.,1.,0.));
#520=DIRECTION('',(-0.992192705004479,0.,-0.124714217857847));
#530=AXIS2_PLACEMENT_3D('',#500,#510,#520);
#540=CIRCLE('',#530,33.1);
#550=CARTESIAN_POINT('',(-33.0594678925174,48.75,-1.63755386586533));
#560=VERTEX_POINT('',#550);
#570=EDGE_CURVE('',#470,#560,#540,.T.);
#580=ORIENTED_EDGE('',*,*,#570,.F.);
#590=CARTESIAN_POINT('',(-33.0594678925174,54.,-1.63755386586536));
#600=DIRECTION('',(0.,-1.,0.));
#610=VECTOR('',#600,1.);
#620=LINE('',#590,#610);
#630=CARTESIAN_POINT('',(-33.0594678925174,55.,-1.63755386586534));
#640=VERTEX_POINT('',#630);
#650=EDGE_CURVE('',#640,#560,#620,.T.);
#660=ORIENTED_EDGE('',*,*,#650,.T.);
#670=EDGE_CURVE('',#110,#640,#370,.T.);
#680=ORIENTED_EDGE('',*,*,#670,.T.);
#690=EDGE_LOOP('',(#680,#660,#580,#490,#410,#320,#240,#150));
#700=FACE_OUTER_BOUND('',#690,.T.);
#710=ADVANCED_FACE('',(#700),#50,.T.);
#720=COLOUR_RGB('',1.,0.10196079313755,0.10196079313755);
#730=FILL_AREA_STYLE_COLOUR('',#720);
#740=FILL_AREA_STYLE('',(#730));
#750=SURFACE_STYLE_FILL_AREA(#740);
#760=SURFACE_SIDE_STYLE('',(#750));
#770=SURFACE_STYLE_USAGE(.BOTH.,#760);
#780=PRESENTATION_STYLE_ASSIGNMENT((#770));
#790=CARTESIAN_POINT('',(0.,0.,0.));
#800=DIRECTION('',(0.,-1.,0.));
#810=DIRECTION('',(1.,0.,0.));
#820=AXIS2_PLACEMENT_3D('',#790,#800,#810);
#830=CYLINDRICAL_SURFACE('',#820,35.);
#840=CARTESIAN_POINT('',(35.,0.,0.));
#850=DIRECTION('',(0.,-1.,0.));
#860=VECTOR('',#850,1.);
#870=LINE('',#840,#860);
#880=CARTESIAN_POINT('',(35.,12.,0.));
#890=VERTEX_POINT('',#880);
#900=CARTESIAN_POINT('',(35.,0.,0.));
#910=VERTEX_POINT('',#900);
#920=EDGE_CURVE('',#890,#910,#870,.T.);
#930=ORIENTED_EDGE('',*,*,#920,.T.);
#940=CARTESIAN_POINT('',(0.,12.,0.));
#950=DIRECTION('',(0.,-1.,0.));
#960=DIRECTION('',(1.,0.,0.));
#970=AXIS2_PLACEMENT_3D('',#940,#950,#960);
#980=CIRCLE('',#970,35.);
#990=CARTESIAN_POINT('',(-35.,12.,4.28626379701574E-15));
#1000=VERTEX_POINT('',#990);
#1010=EDGE_CURVE('',#1000,#890,#980,.T.);
#1020=ORIENTED_EDGE('',*,*,#1010,.T.);
#1030=CARTESIAN_POINT('',(-35.,0.,4.28626379701574E-15));
#1040=DIRECTION('',(0.,-1.,0.));
#1050=VECTOR('',#1040,1.);
#1060=LINE('',#1030,#1050);
#1070=CARTESIAN_POINT('',(-35.,0.,4.28626379701574E-15));
#1080=VERTEX_POINT('',#1070);
#1090=EDGE_CURVE('',#1000,#1080,#1060,.T.);
#1100=ORIENTED_EDGE('',*,*,#1090,.F.);
#1110=CARTESIAN_POINT('',(0.,0.,0.));
#1120=DIRECTION('',(0.,-1.,0.));
#1130=DIRECTION('',(1.,0.,0.));
#1140=AXIS2_PLACEMENT_3D('',#1110,#1120,#1130);
#1150=CIRCLE('',#1140,35.);
#1160=EDGE_CURVE('',#1080,#910,#1150,.T.);
#1170=ORIENTED_EDGE('',*,*,#1160,.F.);
#1180=EDGE_LOOP('',(#1170,#1100,#1020,#930));
#1190=FACE_OUTER_BOUND('',#1180,.T.);
#1200=ADVANCED_FACE('',(#1190),#830,.T.);
#1210=COLOUR_RGB('',1.,0.10196079313755,0.10196079313755);
#1220=FILL_AREA_STYLE_COLOUR('',#1210);
#1230=FILL_AREA_STYLE('',(#1220));
#1240=SURFACE_STYLE_FILL_AREA(#1230);
#1250=SURFACE_SIDE_STYLE('',(#1240));
#1260=SURFACE_STYLE_USAGE(.BOTH.,#1250);
#1270=PRESENTATION_STYLE_ASSIGNMENT((#1260));
#1280=CARTESIAN_POINT('',(33.5,56.,0.));
#1290=DIRECTION('',(0.,1.,0.));
#1300=DIRECTION('',(0.,0.,1.));
#1310=AXIS2_PLACEMENT_3D('',#1280,#1290,#1300);
#1320=PLANE('',#1310);
#1330=CARTESIAN_POINT('',(0.,56.,0.));
#1340=DIRECTION('',(0.,-1.,0.));
#1350=DIRECTION('',(1.,0.,-1.22597792057105E-16));
#1360=AXIS2_PLACEMENT_3D('',#1330,#1340,#1350);
#1370=CIRCLE('',#1360,32.5);
#1380=CARTESIAN_POINT('',(32.5,56.,0.));
#1390=VERTEX_POINT('',#1380);
#1400=CARTESIAN_POINT('',(-32.5,56.,3.9801020972289E-15));
#1410=VERTEX_POINT('',#1400);
#1420=EDGE_CURVE('',#1390,#1410,#1370,.T.);
#1430=ORIENTED_EDGE('',*,*,#1420,.T.);
#1440=EDGE_CURVE('',#1410,#1390,#1370,.T.);
#1450=ORIENTED_EDGE('',*,*,#1440,.T.);
#1460=EDGE_LOOP('',(#1450,#1430));
#1470=FACE_BOUND('',#1460,.T.);
#1480=CARTESIAN_POINT('',(0.,56.,0.));
#1490=DIRECTION('',(0.,1.,0.));
#1500=DIRECTION('',(-1.,0.,-7.6571373978539E-16));
#1510=AXIS2_PLACEMENT_3D('',#1480,#1490,#1500);
#1520=CIRCLE('',#1510,34.5);
#1530=CARTESIAN_POINT('',(34.5,56.,0.));
#1540=VERTEX_POINT('',#1530);
#1550=CARTESIAN_POINT('',(-34.5,56.,4.22503145705837E-15));
#1560=VERTEX_POINT('',#1550);
#1570=EDGE_CURVE('',#1540,#1560,#1520,.T.);
#1580=ORIENTED_EDGE('',*,*,#1570,.T.);
#1590=EDGE_CURVE('',#1560,#1540,#1520,.T.);
#1600=ORIENTED_EDGE('',*,*,#1590,.T.);
#1610=EDGE_LOOP('',(#1600,#1580));
#1620=FACE_OUTER_BOUND('',#1610,.T.);
#1630=ADVANCED_FACE('',(#1470,#1620),#1320,.T.);
#1640=COLOUR_RGB('',0.,0.,0.);
#1650=FILL_AREA_STYLE_COLOUR('',#1640);
#1660=FILL_AREA_STYLE('',(#1650));
#1670=SURFACE_STYLE_FILL_AREA(#1660);
#1680=SURFACE_SIDE_STYLE('',(#1670));
#1690=SURFACE_STYLE_USAGE(.BOTH.,#1680);
#1700=PRESENTATION_STYLE_ASSIGNMENT((#1690));
#1710=CARTESIAN_POINT('',(0.,55.5,0.));
#1720=DIRECTION('',(0.,-1.,0.));
#1730=DIRECTION('',(1.,0.,0.));
#1740=AXIS2_PLACEMENT_3D('',#1710,#1720,#1730);
#1750=CYLINDRICAL_SURFACE('',#1740,34.5);
#1760=CARTESIAN_POINT('',(34.5,55.5,0.));
#1770=DIRECTION('',(0.,-1.,0.));
#1780=VECTOR('',#1770,1.);
#1790=LINE('',#1760,#1780);
#1800=CARTESIAN_POINT('',(34.5,55.,0.));
#1810=VERTEX_POINT('',#1800);
#1820=EDGE_CURVE('',#1540,#1810,#1790,.T.);
#1830=ORIENTED_EDGE('',*,*,#1820,.F.);
#1840=CARTESIAN_POINT('',(0.,55.,0.));
#1850=DIRECTION('',(0.,-1.,0.));
#1860=DIRECTION('',(1.,0.,-6.88779145636718E-12));
#1870=AXIS2_PLACEMENT_3D('',#1840,#1850,#1860);
#1880=CIRCLE('',#1870,34.5);
#1890=CARTESIAN_POINT('',(-34.5,55.,4.22503145705837E-15));
#1900=VERTEX_POINT('',#1890);
#1910=EDGE_CURVE('',#1810,#1900,#1880,.T.);
#1920=ORIENTED_EDGE('',*,*,#1910,.F.);
#1930=CARTESIAN_POINT('',(-34.5,55.5,4.22503145705837E-15));
#1940=DIRECTION('',(0.,-1.,0.));
#1950=VECTOR('',#1940,1.);
#1960=LINE('',#1930,#1950);
#1970=EDGE_CURVE('',#1560,#1900,#1960,.T.);
#1980=ORIENTED_EDGE('',*,*,#1970,.T.);
#1990=ORIENTED_EDGE('',*,*,#1590,.F.);
#2000=EDGE_LOOP('',(#1990,#1980,#1920,#1830));
#2010=FACE_OUTER_BOUND('',#2000,.T.);
#2020=ADVANCED_FACE('',(#2010),#1750,.T.);
#2030=COLOUR_RGB('',0.,0.,0.);
#2040=FILL_AREA_STYLE_COLOUR('',#2030);
#2050=FILL_AREA_STYLE('',(#2040));
#2060=SURFACE_STYLE_FILL_AREA(#2050);
#2070=SURFACE_SIDE_STYLE('',(#2060));
#2080=SURFACE_STYLE_USAGE(.BOTH.,#2070);
#2090=PRESENTATION_STYLE_ASSIGNMENT((#2080));
#2100=CARTESIAN_POINT('',(0.,60.75,0.));
#2110=DIRECTION('',(0.,-1.,0.));
#2120=DIRECTION('',(1.,0.,0.));
#2130=AXIS2_PLACEMENT_3D('',#2100,#2110,#2120);
#2140=CYLINDRICAL_SURFACE('',#2130,32.5);
#2150=CARTESIAN_POINT('',(-32.5,60.75,3.9801020972289E-15));
#2160=DIRECTION('',(0.,-1.,0.));
#2170=VECTOR('',#2160,1.);
#2180=LINE('',#2150,#2170);
#2190=CARTESIAN_POINT('',(-32.5,65.5,3.9801020972289E-15));
#2200=VERTEX_POINT('',#2190);
#2210=EDGE_CURVE('',#2200,#1410,#2180,.T.);
#2220=ORIENTED_EDGE('',*,*,#2210,.F.);
#2230=ORIENTED_EDGE('',*,*,#1440,.F.);
#2240=CARTESIAN_POINT('',(32.5,60.75,0.));
#2250=DIRECTION('',(0.,-1.,0.));
#2260=VECTOR('',#2250,1.);
#2270=LINE('',#2240,#2260);
#2280=CARTESIAN_POINT('',(32.5,65.5,0.));
#2290=VERTEX_POINT('',#2280);
#2300=EDGE_CURVE('',#2290,#1390,#2270,.T.);
#2310=ORIENTED_EDGE('',*,*,#2300,.T.);
#2320=CARTESIAN_POINT('',(0.,65.5,0.));
#2330=DIRECTION('',(0.,1.,0.));
#2340=DIRECTION('',(-1.,0.,-7.6571373978539E-16));
#2350=AXIS2_PLACEMENT_3D('',#2320,#2330,#2340);
#2360=CIRCLE('',#2350,32.5);
#2370=EDGE_CURVE('',#2290,#2200,#2360,.T.);
#2380=ORIENTED_EDGE('',*,*,#2370,.F.);
#2390=EDGE_LOOP('',(#2380,#2310,#2230,#2220));
#2400=FACE_OUTER_BOUND('',#2390,.T.);
#2410=ADVANCED_FACE('',(#2400),#2140,.T.);
#2420=COLOUR_RGB('',1.,0.10196079313755,0.10196079313755);
#2430=FILL_AREA_STYLE_COLOUR('',#2420);
#2440=FILL_AREA_STYLE('',(#2430));
#2450=SURFACE_STYLE_FILL_AREA(#2440);
#2460=SURFACE_SIDE_STYLE('',(#2450));
#2470=SURFACE_STYLE_USAGE(.BOTH.,#2460);
#2480=PRESENTATION_STYLE_ASSIGNMENT((#2470));
#2490=CARTESIAN_POINT('',(34.5,0.,0.));
#2500=DIRECTION('',(0.,-1.,0.));
#2510=DIRECTION('',(0.,0.,-1.));
#2520=AXIS2_PLACEMENT_3D('',#2490,#2500,#2510);
#2530=PLANE('',#2520);
#2540=EDGE_CURVE('',#910,#1080,#1150,.T.);
#2550=ORIENTED_EDGE('',*,*,#2540,.T.);
#2560=ORIENTED_EDGE('',*,*,#1160,.T.);
#2570=EDGE_LOOP('',(#2560,#2550));
#2580=FACE_OUTER_BOUND('',#2570,.T.);
#2590=CARTESIAN_POINT('',(0.,4.44089209850063E-15,0.));
#2600=DIRECTION('',(0.,1.,0.));
#2610=DIRECTION('',(1.,0.,-1.22331972386649E-16));
#2620=AXIS2_PLACEMENT_3D('',#2590,#2600,#2610);
#2630=CIRCLE('',#2620,32.7);
#2640=CARTESIAN_POINT('',(-32.7,4.44089209850063E-15,
4.00459503321185E-15));
#2650=VERTEX_POINT('',#2640);
#2660=CARTESIAN_POINT('',(32.7,4.44089209850063E-15,0.));
#2670=VERTEX_POINT('',#2660);
#2680=EDGE_CURVE('',#2650,#2670,#2630,.T.);
#2690=ORIENTED_EDGE('',*,*,#2680,.T.);
#2700=CARTESIAN_POINT('',(-8.17314556228835,0.,-31.6621176110766));
#2710=VERTEX_POINT('',#2700);
#2720=EDGE_CURVE('',#2710,#2650,#2630,.T.);
#2730=ORIENTED_EDGE('',*,*,#2720,.T.);
#2740=EDGE_CURVE('',#2670,#2710,#2630,.T.);
#2750=ORIENTED_EDGE('',*,*,#2740,.T.);
#2760=EDGE_LOOP('',(#2750,#2730,#2690));
#2770=FACE_BOUND('',#2760,.T.);
#2780=ADVANCED_FACE('',(#2580,#2770),#2530,.T.);
#2790=COLOUR_RGB('',1.,0.10196079313755,0.10196079313755);
#2800=FILL_AREA_STYLE_COLOUR('',#2790);
#2810=FILL_AREA_STYLE('',(#2800));
#2820=SURFACE_STYLE_FILL_AREA(#2810);
#2830=SURFACE_SIDE_STYLE('',(#2820));
#2840=SURFACE_STYLE_USAGE(.BOTH.,#2830);
#2850=PRESENTATION_STYLE_ASSIGNMENT((#2840));
#2860=CARTESIAN_POINT('',(33.8,55.,0.));
#2870=DIRECTION('',(0.,-1.,0.));
#2880=DIRECTION('',(0.,0.,-1.));
#2890=AXIS2_PLACEMENT_3D('',#2860,#2870,#2880);
#2900=PLANE('',#2890);
#2910=ORIENTED_EDGE('',*,*,#1910,.T.);
#2920=CARTESIAN_POINT('',(-34.2372062406182,55.,-4.2501422137821));
#2930=VERTEX_POINT('',#2920);
#2940=EDGE_CURVE('',#2930,#1810,#1880,.T.);
#2950=ORIENTED_EDGE('',*,*,#2940,.T.);
#2960=CARTESIAN_POINT('',(-33.8384634786402,55.,-4.21525674244607));
#2970=DIRECTION('',(-0.996194698091757,0.,-0.0871557427475246));
#2980=VECTOR('',#2970,1.);
#2990=LINE('',#2960,#2980);
#3000=EDGE_CURVE('',#390,#2930,#2990,.T.);
#3010=ORIENTED_EDGE('',*,*,#3000,.T.);
#3020=ORIENTED_EDGE('',*,*,#400,.F.);
#3030=EDGE_CURVE('',#300,#110,#370,.T.);
#3040=ORIENTED_EDGE('',*,*,#3030,.F.);
#3050=ORIENTED_EDGE('',*,*,#670,.F.);
#3060=CARTESIAN_POINT('',(-34.4550955974873,55.,-1.75965546855293));
#3070=DIRECTION('',(0.996194698091746,0.,0.0871557427476571));
#3080=VECTOR('',#3070,1.);
#3090=LINE('',#3060,#3080);
#3100=CARTESIAN_POINT('',(-34.4550955974873,55.,-1.75965546855293));
#3110=VERTEX_POINT('',#3100);
#3120=EDGE_CURVE('',#3110,#640,#3090,.T.);
#3130=ORIENTED_EDGE('',*,*,#3120,.T.);
#3140=EDGE_CURVE('',#1900,#3110,#1880,.T.);
#3150=ORIENTED_EDGE('',*,*,#3140,.T.);
#3160=EDGE_LOOP('',(#3150,#3130,#3050,#3040,#3020,#3010,#2950,#2910));
#3170=FACE_OUTER_BOUND('',#3160,.T.);
#3180=ADVANCED_FACE('',(#3170),#2900,.T.);
#3190=COLOUR_RGB('',0.,0.,0.);
#3200=FILL_AREA_STYLE_COLOUR('',#3190);
#3210=FILL_AREA_STYLE('',(#3200));
#3220=SURFACE_STYLE_FILL_AREA(#3210);
#3230=SURFACE_SIDE_STYLE('',(#3220));
#3240=SURFACE_STYLE_USAGE(.BOTH.,#3230);
#3250=PRESENTATION_STYLE_ASSIGNMENT((#3240));
#3260=CARTESIAN_POINT('',(-33.6575710458608,48.75,-2.94465590833117));
#3270=DIRECTION('',(0.,1.,0.));
#3280=DIRECTION('',(0.,0.,1.));
#3290=AXIS2_PLACEMENT_3D('',#3260,#3270,#3280);
#3300=PLANE('',#3290);
#3310=CARTESIAN_POINT('',(-34.2372062406182,48.75,-4.25014221378211));
#3320=DIRECTION('',(0.996194698091757,0.,0.0871557427475231));
#3330=VECTOR('',#3320,1.);
#3340=LINE('',#3310,#3330);
#3350=CARTESIAN_POINT('',(-34.2372062406182,48.75,-4.25014221378209));
#3360=VERTEX_POINT('',#3350);
#3370=EDGE_CURVE('',#3360,#470,#3340,.T.);
#3380=ORIENTED_EDGE('',*,*,#3370,.T.);
#3390=CARTESIAN_POINT('',(0.,48.75,0.));
#3400=DIRECTION('',(0.,-1.,0.));
#3410=DIRECTION('',(-0.998698423115575,0.,-0.0510045063348677));
#3420=AXIS2_PLACEMENT_3D('',#3390,#3400,#3410);
#3430=CIRCLE('',#3420,34.5);
#3440=CARTESIAN_POINT('',(-34.4550955974873,48.75,-1.75965546855291));
#3450=VERTEX_POINT('',#3440);
#3460=EDGE_CURVE('',#3450,#3360,#3430,.T.);
#3470=ORIENTED_EDGE('',*,*,#3460,.T.);
#3480=CARTESIAN_POINT('',(-33.0594678925174,48.75,-1.63755386586536));
#3490=DIRECTION('',(-0.996194698091745,0.,-0.087155742747659));
#3500=VECTOR('',#3490,1.);
#3510=LINE('',#3480,#3500);
#3520=EDGE_CURVE('',#560,#3450,#3510,.T.);
#3530=ORIENTED_EDGE('',*,*,#3520,.T.);
#3540=ORIENTED_EDGE('',*,*,#570,.T.);
#3550=EDGE_LOOP('',(#3540,#3530,#3470,#3380));
#3560=FACE_OUTER_BOUND('',#3550,.T.);
#3570=ADVANCED_FACE('',(#3560),#3300,.F.);
#3580=COLOUR_RGB('',0.,0.,0.);
#3590=FILL_AREA_STYLE_COLOUR('',#3580);
#3600=FILL_AREA_STYLE('',(#3590));
#3610=SURFACE_STYLE_FILL_AREA(#3600);
#3620=SURFACE_SIDE_STYLE('',(#3610));
#3630=SURFACE_STYLE_USAGE(.BOTH.,#3620);
#3640=PRESENTATION_STYLE_ASSIGNMENT((#3630));
#3650=CARTESIAN_POINT('',(-32.8415785356483,56.,-4.12804061109473));
#3660=DIRECTION('',(0.087155742747523,0.,-0.996194698091757));
#3670=DIRECTION('',(-0.996194698091757,0.,-0.087155742747523));
#3680=AXIS2_PLACEMENT_3D('',#3650,#3660,#3670);
#3690=PLANE('',#3680);
#3700=CARTESIAN_POINT('',(-34.2372062406182,55.,-4.2501422137821));
#3710=DIRECTION('',(0.,-1.,0.));
#3720=VECTOR('',#3710,1.);
#3730=LINE('',#3700,#3720);
#3740=EDGE_CURVE('',#2930,#3360,#3730,.T.);
#3750=ORIENTED_EDGE('',*,*,#3740,.F.);
#3760=ORIENTED_EDGE('',*,*,#3370,.F.);
#3770=ORIENTED_EDGE('',*,*,#480,.F.);
#3780=ORIENTED_EDGE('',*,*,#3000,.F.);
#3790=EDGE_LOOP('',(#3780,#3770,#3760,#3750));
#3800=FACE_OUTER_BOUND('',#3790,.T.);
#3810=ADVANCED_FACE('',(#3800),#3690,.T.);
#3820=COLOUR_RGB('',0.,0.,0.);
#3830=FILL_AREA_STYLE_COLOUR('',#3820);
#3840=FILL_AREA_STYLE('',(#3830));
#3850=SURFACE_STYLE_FILL_AREA(#3840);
#3860=SURFACE_SIDE_STYLE('',(#3850));
#3870=SURFACE_STYLE_USAGE(.BOTH.,#3860);
#3880=PRESENTATION_STYLE_ASSIGNMENT((#3870));
#3890=CARTESIAN_POINT('',(33.9,12.,0.));
#3900=DIRECTION('',(0.,1.,0.));
#3910=DIRECTION('',(0.,0.,1.));
#3920=AXIS2_PLACEMENT_3D('',#3890,#3900,#3910);
#3930=PLANE('',#3920);
#3940=ORIENTED_EDGE('',*,*,#230,.T.);
#3950=CARTESIAN_POINT('',(20.1088812565209,12.,26.2914985234989));
#3960=VERTEX_POINT('',#3950);
#3970=EDGE_CURVE('',#3960,#130,#200,.T.);
#3980=ORIENTED_EDGE('',*,*,#3970,.T.);
#3990=EDGE_CURVE('',#220,#3960,#200,.T.);
#4000=ORIENTED_EDGE('',*,*,#3990,.T.);
#4010=EDGE_LOOP('',(#4000,#3980,#3940));
#4020=FACE_BOUND('',#4010,.T.);
#4030=EDGE_CURVE('',#890,#1000,#980,.T.);
#4040=ORIENTED_EDGE('',*,*,#4030,.F.);
#4050=ORIENTED_EDGE('',*,*,#1010,.F.);
#4060=EDGE_LOOP('',(#4050,#4040));
#4070=FACE_OUTER_BOUND('',#4060,.T.);
#4080=ADVANCED_FACE('',(#4020,#4070),#3930,.T.);
#4090=COLOUR_RGB('',1.,0.10196079313755,0.10196079313755);
#4100=FILL_AREA_STYLE_COLOUR('',#4090);
#4110=FILL_AREA_STYLE('',(#4100));
#4120=SURFACE_STYLE_FILL_AREA(#4110);
#4130=SURFACE_SIDE_STYLE('',(#4120));
#4140=SURFACE_STYLE_USAGE(.BOTH.,#4130);
#4150=PRESENTATION_STYLE_ASSIGNMENT((#4140));
#4160=CARTESIAN_POINT('',(28.05,65.5,0.));
#4170=DIRECTION('',(0.,1.,0.));
#4180=DIRECTION('',(0.,0.,1.));
#4190=AXIS2_PLACEMENT_3D('',#4160,#4170,#4180);
#4200=PLANE('',#4190);
#4210=EDGE_CURVE('',#2200,#2290,#2360,.T.);
#4220=ORIENTED_EDGE('',*,*,#4210,.T.);
#4230=ORIENTED_EDGE('',*,*,#2370,.T.);
#4240=EDGE_LOOP('',(#4230,#4220));
#4250=FACE_OUTER_BOUND('',#4240,.T.);
#4260=ADVANCED_FACE('',(#4250),#4200,.T.);
#4270=COLOUR_RGB('',1.,0.10196079313755,0.10196079313755);
#4280=FILL_AREA_STYLE_COLOUR('',#4270);
#4290=FILL_AREA_STYLE('',(#4280));
#4300=SURFACE_STYLE_FILL_AREA(#4290);
#4310=SURFACE_SIDE_STYLE('',(#4300));
#4320=SURFACE_STYLE_USAGE(.BOTH.,#4310);
#4330=PRESENTATION_STYLE_ASSIGNMENT((#4320));
#4340=CARTESIAN_POINT('',(31.5125,9.6,0.));
#4350=DIRECTION('',(0.,-1.,0.));
#4360=DIRECTION('',(0.,0.,-1.));
#4370=AXIS2_PLACEMENT_3D('',#4340,#4350,#4360);
#4380=PLANE('',#4370);
#4390=CARTESIAN_POINT('',(0.,9.6,0.));
#4400=DIRECTION('',(0.,-1.,0.));
#4410=DIRECTION('',(-1.,0.,1.22464679914735E-16));
#4420=AXIS2_PLACEMENT_3D('',#4390,#4400,#4410);
#4430=CIRCLE('',#4420,32.7);
#4440=CARTESIAN_POINT('',(-32.7,9.6,4.00459503321185E-15));
#4450=VERTEX_POINT('',#4440);
#4460=CARTESIAN_POINT('',(32.7,9.6,0.));
#4470=VERTEX_POINT('',#4460);
#4480=EDGE_CURVE('',#4450,#4470,#4430,.T.);
#4490=ORIENTED_EDGE('',*,*,#4480,.T.);
#4500=EDGE_CURVE('',#4470,#4450,#4430,.T.);
#4510=ORIENTED_EDGE('',*,*,#4500,.T.);
#4520=EDGE_LOOP('',(#4510,#4490));
#4530=FACE_OUTER_BOUND('',#4520,.T.);
#4540=ADVANCED_FACE('',(#4530),#4380,.T.);
#4550=COLOUR_RGB('',1.,0.10196079313755,0.10196079313755);
#4560=FILL_AREA_STYLE_COLOUR('',#4550);
#4570=FILL_AREA_STYLE('',(#4560));
#4580=SURFACE_STYLE_FILL_AREA(#4570);
#4590=SURFACE_SIDE_STYLE('',(#4580));
#4600=SURFACE_STYLE_USAGE(.BOTH.,#4590);
#4610=PRESENTATION_STYLE_ASSIGNMENT((#4600));
#4620=CARTESIAN_POINT('',(-34.4550955974873,56.,-1.75965546855293));
#4630=DIRECTION('',(-0.087155742747659,0.,0.996194698091745));
#4640=DIRECTION('',(0.996194698091745,0.,0.087155742747659));
#4650=AXIS2_PLACEMENT_3D('',#4620,#4630,#4640);
#4660=PLANE('',#4650);
#4670=ORIENTED_EDGE('',*,*,#3520,.F.);
#4680=CARTESIAN_POINT('',(-34.4550955974873,48.75,-1.75965546855293));
#4690=DIRECTION('',(0.,1.,0.));
#4700=VECTOR('',#4690,1.);
#4710=LINE('',#4680,#4700);
#4720=EDGE_CURVE('',#3450,#3110,#4710,.T.);
#4730=ORIENTED_EDGE('',*,*,#4720,.F.);
#4740=ORIENTED_EDGE('',*,*,#3120,.F.);
#4750=ORIENTED_EDGE('',*,*,#650,.F.);
#4760=EDGE_LOOP('',(#4750,#4740,#4730,#4670));
#4770=FACE_OUTER_BOUND('',#4760,.T.);
#4780=ADVANCED_FACE('',(#4770),#4660,.T.);
#4790=COLOUR_RGB('',0.,0.,0.);
#4800=FILL_AREA_STYLE_COLOUR('',#4790);
#4810=FILL_AREA_STYLE('',(#4800));
#4820=SURFACE_STYLE_FILL_AREA(#4810);
#4830=SURFACE_SIDE_STYLE('',(#4820));
#4840=SURFACE_STYLE_USAGE(.BOTH.,#4830);
#4850=PRESENTATION_STYLE_ASSIGNMENT((#4840));
#4860=CARTESIAN_POINT('',(0.,6.005,0.));
#4870=DIRECTION('',(0.,-1.,0.));
#4880=DIRECTION('',(1.,0.,0.));
#4890=AXIS2_PLACEMENT_3D('',#4860,#4870,#4880);
#4900=CYLINDRICAL_SURFACE('',#4890,32.7);
#4910=ORIENTED_EDGE('',*,*,#2720,.F.);
#4920=CARTESIAN_POINT('',(-32.7,6.005,4.00459503321185E-15));
#4930=DIRECTION('',(0.,-1.,0.));
#4940=VECTOR('',#4930,1.);
#4950=LINE('',#4920,#4940);
#4960=EDGE_CURVE('',#4450,#2650,#4950,.T.);
#4970=ORIENTED_EDGE('',*,*,#4960,.T.);
#4980=ORIENTED_EDGE('',*,*,#4480,.F.);
#4990=CARTESIAN_POINT('',(32.7,6.005,0.));
#5000=DIRECTION('',(0.,-1.,0.));
#5010=VECTOR('',#5000,1.);
#5020=LINE('',#4990,#5010);
#5030=EDGE_CURVE('',#4470,#2670,#5020,.T.);
#5040=ORIENTED_EDGE('',*,*,#5030,.F.);
#5050=ORIENTED_EDGE('',*,*,#2740,.F.);
#5060=EDGE_LOOP('',(#5050,#5040,#4980,#4970,#4910));
#5070=FACE_OUTER_BOUND('',#5060,.T.);
#5080=ADVANCED_FACE('',(#5070),#4900,.F.);
#5090=COLOUR_RGB('',1.,0.10196079313755,0.10196079313755);
#5100=FILL_AREA_STYLE_COLOUR('',#5090);
#5110=FILL_AREA_STYLE('',(#5100));
#5120=SURFACE_STYLE_FILL_AREA(#5110);
#5130=SURFACE_SIDE_STYLE('',(#5120));
#5140=SURFACE_STYLE_USAGE(.BOTH.,#5130);
#5150=PRESENTATION_STYLE_ASSIGNMENT((#5140));
#5160=CARTESIAN_POINT('',(0.,6.005,0.));
#5170=DIRECTION('',(0.,-1.,0.));
#5180=DIRECTION('',(1.,0.,0.));
#5190=AXIS2_PLACEMENT_3D('',#5160,#5170,#5180);
#5200=CYLINDRICAL_SURFACE('',#5190,32.7);
#5210=ORIENTED_EDGE('',*,*,#4960,.F.);
#5220=ORIENTED_EDGE('',*,*,#2680,.F.);
#5230=ORIENTED_EDGE('',*,*,#5030,.T.);
#5240=ORIENTED_EDGE('',*,*,#4500,.F.);
#5250=EDGE_LOOP('',(#5240,#5230,#5220,#5210));
#5260=FACE_OUTER_BOUND('',#5250,.T.);
#5270=ADVANCED_FACE('',(#5260),#5200,.F.);
#5280=COLOUR_RGB('',1.,0.10196079313755,0.10196079313755);
#5290=FILL_AREA_STYLE_COLOUR('',#5280);
#5300=FILL_AREA_STYLE('',(#5290));
#5310=SURFACE_STYLE_FILL_AREA(#5300);
#5320=SURFACE_SIDE_STYLE('',(#5310));
#5330=SURFACE_STYLE_USAGE(.BOTH.,#5320);
#5340=PRESENTATION_STYLE_ASSIGNMENT((#5330));
#5350=CARTESIAN_POINT('',(0.,0.,0.));
#5360=DIRECTION('',(0.,-1.,0.));
#5370=DIRECTION('',(1.,0.,0.));
#5380=AXIS2_PLACEMENT_3D('',#5350,#5360,#5370);
#5390=CYLINDRICAL_SURFACE('',#5380,35.);
#5400=ORIENTED_EDGE('',*,*,#2540,.F.);
#5410=ORIENTED_EDGE('',*,*,#1090,.T.);
#5420=ORIENTED_EDGE('',*,*,#4030,.T.);
#5430=ORIENTED_EDGE('',*,*,#920,.F.);
#5440=EDGE_LOOP('',(#5430,#5420,#5410,#5400));
#5450=FACE_OUTER_BOUND('',#5440,.T.);
#5460=ADVANCED_FACE('',(#5450),#5390,.T.);
#5470=COLOUR_RGB('',1.,0.10196079313755,0.10196079313755);
#5480=FILL_AREA_STYLE_COLOUR('',#5470);
#5490=FILL_AREA_STYLE('',(#5480));
#5500=SURFACE_STYLE_FILL_AREA(#5490);
#5510=SURFACE_SIDE_STYLE('',(#5500));
#5520=SURFACE_STYLE_USAGE(.BOTH.,#5510);
#5530=PRESENTATION_STYLE_ASSIGNMENT((#5520));
#5540=CARTESIAN_POINT('',(0.,60.75,0.));
#5550=DIRECTION('',(0.,-1.,0.));
#5560=DIRECTION('',(1.,0.,0.));
#5570=AXIS2_PLACEMENT_3D('',#5540,#5550,#5560);
#5580=CYLINDRICAL_SURFACE('',#5570,32.5);
#5590=ORIENTED_EDGE('',*,*,#1420,.F.);
#5600=ORIENTED_EDGE('',*,*,#2210,.T.);
#5610=ORIENTED_EDGE('',*,*,#4210,.F.);
#5620=ORIENTED_EDGE('',*,*,#2300,.F.);
#5630=EDGE_LOOP('',(#5620,#5610,#5600,#5590));
#5640=FACE_OUTER_BOUND('',#5630,.T.);
#5650=ADVANCED_FACE('',(#5640),#5580,.T.);
#5660=COLOUR_RGB('',1.,0.10196079313755,0.10196079313755);
#5670=FILL_AREA_STYLE_COLOUR('',#5660);
#5680=FILL_AREA_STYLE('',(#5670));
#5690=SURFACE_STYLE_FILL_AREA(#5680);
#5700=SURFACE_SIDE_STYLE('',(#5690));
#5710=SURFACE_STYLE_USAGE(.BOTH.,#5700);
#5720=PRESENTATION_STYLE_ASSIGNMENT((#5710));
#5730=CARTESIAN_POINT('',(0.,33.5,0.));
#5740=DIRECTION('',(0.,-1.,0.));
#5750=DIRECTION('',(1.,0.,0.));
#5760=AXIS2_PLACEMENT_3D('',#5730,#5740,#5750);
#5770=CYLINDRICAL_SURFACE('',#5760,33.1);
#5780=ORIENTED_EDGE('',*,*,#3970,.F.);
#5790=ORIENTED_EDGE('',*,*,#140,.T.);
#5800=ORIENTED_EDGE('',*,*,#3030,.T.);
#5810=ORIENTED_EDGE('',*,*,#310,.F.);
#5820=ORIENTED_EDGE('',*,*,#3990,.F.);
#5830=EDGE_LOOP('',(#5820,#5810,#5800,#5790,#5780));
#5840=FACE_OUTER_BOUND('',#5830,.T.);
#5850=ADVANCED_FACE('',(#5840),#5770,.T.);
#5860=COLOUR_RGB('',1.,0.10196079313755,0.10196079313755);
#5870=FILL_AREA_STYLE_COLOUR('',#5860);
#5880=FILL_AREA_STYLE('',(#5870));
#5890=SURFACE_STYLE_FILL_AREA(#5880);
#5900=SURFACE_SIDE_STYLE('',(#5890));
#5910=SURFACE_STYLE_USAGE(.BOTH.,#5900);
#5920=PRESENTATION_STYLE_ASSIGNMENT((#5910));
#5930=CARTESIAN_POINT('',(0.,55.5,0.));
#5940=DIRECTION('',(0.,-1.,0.));
#5950=DIRECTION('',(1.,0.,0.));
#5960=AXIS2_PLACEMENT_3D('',#5930,#5940,#5950);
#5970=CYLINDRICAL_SURFACE('',#5960,34.5);
#5980=ORIENTED_EDGE('',*,*,#4720,.T.);
#5990=ORIENTED_EDGE('',*,*,#3460,.F.);
#6000=ORIENTED_EDGE('',*,*,#3740,.T.);
#6010=ORIENTED_EDGE('',*,*,#2940,.F.);
#6020=ORIENTED_EDGE('',*,*,#1820,.T.);
#6030=ORIENTED_EDGE('',*,*,#1570,.F.);
#6040=ORIENTED_EDGE('',*,*,#1970,.F.);
#6050=ORIENTED_EDGE('',*,*,#3140,.F.);
#6060=EDGE_LOOP('',(#6050,#6040,#6030,#6020,#6010,#6000,#5990,#5980));
#6070=FACE_OUTER_BOUND('',#6060,.T.);
#6080=ADVANCED_FACE('',(#6070),#5970,.T.);
#6090=COLOUR_RGB('',0.,0.,0.);
#6100=FILL_AREA_STYLE_COLOUR('',#6090);
#6110=FILL_AREA_STYLE('',(#6100));
#6120=SURFACE_STYLE_FILL_AREA(#6110);
#6130=SURFACE_SIDE_STYLE('',(#6120));
#6140=SURFACE_STYLE_USAGE(.BOTH.,#6130);
#6150=PRESENTATION_STYLE_ASSIGNMENT((#6140));
#6160=CLOSED_SHELL('',(#710,#1200,#1630,#2020,#2410,#2780,#3180,#3570,
#3810,#4080,#4260,#4540,#4780,#5080,#5270,#5460,#5650,#5850,#6080));
#6170=MANIFOLD_SOLID_BREP('',#6160);
#6180=CARTESIAN_POINT('',(0.,0.,0.));
#6190=DIRECTION('',(0.,0.,1.));
#6200=DIRECTION('',(1.,0.,0.));
#6210=AXIS2_PLACEMENT_3D('',#6180,#6190,#6200);
#6220=APPLICATION_CONTEXT(' ');
#6230=APPLICATION_PROTOCOL_DEFINITION(' ','automotive_design',1998,#6220
);
#6240=PRODUCT_CONTEXT('',#6220,'mechanical');
#6250=PRODUCT_DEFINITION_CONTEXT('part definition',#6220,'design');
#6260=PRODUCT('2700115_PSD_S_OE_LED_FL_RD-select',
'2700115_PSD_S_OE_LED_FL_RD-select','',(#6240));
#6270=PRODUCT_RELATED_PRODUCT_CATEGORY('part',' ',(#6260));
#6280=PRODUCT_DEFINITION_FORMATION_WITH_SPECIFIED_SOURCE('','',#6260,
.BOUGHT.);
#6290=PRODUCT_DEFINITION('',' ',#6280,#6250);
#6300=PRODUCT_DEFINITION_SHAPE('','',#6290);
#6310=DIMENSIONAL_EXPONENTS(1.,0.,0.,0.,0.,0.,0.);
#6320=DIMENSIONAL_EXPONENTS(0.,0.,0.,0.,0.,0.,0.);
#6330=DIMENSIONAL_EXPONENTS(0.,0.,0.,0.,0.,0.,0.);
#6340=(LENGTH_UNIT() NAMED_UNIT(*) SI_UNIT(.MILLI.,.METRE.));
#6350=(NAMED_UNIT(*) PLANE_ANGLE_UNIT() SI_UNIT($,.RADIAN.));
#6360=(NAMED_UNIT(*) SI_UNIT($,.STERADIAN.) SOLID_ANGLE_UNIT());
#6370=(GEOMETRIC_REPRESENTATION_CONTEXT(3) 
GLOBAL_UNCERTAINTY_ASSIGNED_CONTEXT((#6380)) 
GLOBAL_UNIT_ASSIGNED_CONTEXT((#6340,#6350,#6360)) REPRESENTATION_CONTEXT
('',''));
#6380=UNCERTAINTY_MEASURE_WITH_UNIT(LENGTH_MEASURE(0.012),#6340,
'distance_accuracy_value','maximum gap value');
#6390=ADVANCED_BREP_SHAPE_REPRESENTATION('',(#6210,#6170),#6370);
#6400=SHAPE_DEFINITION_REPRESENTATION(#6300,#6390);
#6410=COLOUR_RGB('',1.,0.10196079313755,0.10196079313755);
#6420=FILL_AREA_STYLE_COLOUR('',#6410);
#6430=FILL_AREA_STYLE('',(#6420));
#6440=SURFACE_STYLE_FILL_AREA(#6430);
#6450=SURFACE_SIDE_STYLE('',(#6440));
#6460=SURFACE_STYLE_USAGE(.BOTH.,#6450);
#6470=PRESENTATION_STYLE_ASSIGNMENT((#6460));
#6480=STYLED_ITEM('',(#6470),#6170);
#6490=OVER_RIDING_STYLED_ITEM('',(#780),#710,#6480);
#6500=OVER_RIDING_STYLED_ITEM('',(#1270),#1200,#6480);
#6510=OVER_RIDING_STYLED_ITEM('',(#1700),#1630,#6480);
#6520=OVER_RIDING_STYLED_ITEM('',(#2090),#2020,#6480);
#6530=OVER_RIDING_STYLED_ITEM('',(#2480),#2410,#6480);
#6540=OVER_RIDING_STYLED_ITEM('',(#2850),#2780,#6480);
#6550=OVER_RIDING_STYLED_ITEM('',(#3250),#3180,#6480);
#6560=OVER_RIDING_STYLED_ITEM('',(#3640),#3570,#6480);
#6570=OVER_RIDING_STYLED_ITEM('',(#3880),#3810,#6480);
#6580=OVER_RIDING_STYLED_ITEM('',(#4150),#4080,#6480);
#6590=OVER_RIDING_STYLED_ITEM('',(#4330),#4260,#6480);
#6600=OVER_RIDING_STYLED_ITEM('',(#4610),#4540,#6480);
#6610=OVER_RIDING_STYLED_ITEM('',(#4850),#4780,#6480);
#6620=OVER_RIDING_STYLED_ITEM('',(#5150),#5080,#6480);
#6630=OVER_RIDING_STYLED_ITEM('',(#5340),#5270,#6480);
#6640=OVER_RIDING_STYLED_ITEM('',(#5530),#5460,#6480);
#6650=OVER_RIDING_STYLED_ITEM('',(#5720),#5650,#6480);
#6660=OVER_RIDING_STYLED_ITEM('',(#5920),#5850,#6480);
#6670=OVER_RIDING_STYLED_ITEM('',(#6150),#6080,#6480);
#6680=DRAUGHTING_MODEL('',(#6480,#6490,#6500,#6510,#6520,#6530,#6540,
#6550,#6560,#6570,#6580,#6590,#6600,#6610,#6620,#6630,#6640,#6650,#6660,
#6670),#6370);
ENDSEC;
END-ISO-10303-21;
