ISO-10303-21;
HEADER;
FILE_DESCRIPTION(('OneSpaceDesigner STEP Export'),'2;1');
FILE_NAME('2770794_dp_ukk3-5_select.stp','2004-08-25T 6:43:15',(''),('')
,'OneSpace Designer STEP processor (Jan. 2003) for AP203(Solid Model)',
'OneSpace Designer 12.01C  26-Mar-2004 (C) CoCreate Software GmbH','');
FILE_SCHEMA(('CONFIG_CONTROL_DESIGN'));
ENDSEC;
DATA;
#10=CARTESIAN_POINT('',(0.,0.,2.5));
#20=DIRECTION('',(0.,0.,1.));
#30=DIRECTION('',(1.,0.,0.));
#40=AXIS2_PLACEMENT_3D('',#10,#20,#30);
#50=PLANE('',#40);
#60=CARTESIAN_POINT('',(375.3030964467,151.872561759729,2.5));
#70=DIRECTION('',(0.,1.,0.));
#80=VECTOR('',#70,1.);
#90=LINE('',#60,#80);
#100=CARTESIAN_POINT('',(375.3030964467,151.872561759729,2.5));
#110=VERTEX_POINT('',#100);
#120=CARTESIAN_POINT('',(375.3030964467,170.372561759729,2.5));
#130=VERTEX_POINT('',#120);
#140=EDGE_CURVE('',#110,#130,#90,.T.);
#150=ORIENTED_EDGE('',*,*,#140,.T.);
#160=CARTESIAN_POINT('',(374.3030964467,151.872561759729,2.5));
#170=DIRECTION('',(0.,0.,1.));
#180=DIRECTION('',(1.,0.,0.));
#190=AXIS2_PLACEMENT_3D('',#160,#170,#180);
#200=CIRCLE('',#190,1.);
#210=CARTESIAN_POINT('',(374.3030964467,150.872561759729,2.5));
#220=VERTEX_POINT('',#210);
#230=EDGE_CURVE('',#220,#110,#200,.T.);
#240=ORIENTED_EDGE('',*,*,#230,.T.);
#250=CARTESIAN_POINT('',(347.3030964467,150.872561759729,2.5));
#260=DIRECTION('',(1.,0.,0.));
#270=VECTOR('',#260,1.);
#280=LINE('',#250,#270);
#290=CARTESIAN_POINT('',(320.3030964467,150.872561759729,2.5));
#300=VERTEX_POINT('',#290);
#310=EDGE_CURVE('',#300,#220,#280,.T.);
#320=ORIENTED_EDGE('',*,*,#310,.T.);
#330=CARTESIAN_POINT('',(320.3030964467,151.872561759729,2.5));
#340=DIRECTION('',(0.,0.,1.));
#350=DIRECTION('',(1.,0.,0.));
#360=AXIS2_PLACEMENT_3D('',#330,#340,#350);
#370=CIRCLE('',#360,1.);
#380=CARTESIAN_POINT('',(319.3030964467,151.872561759729,2.5));
#390=VERTEX_POINT('',#380);
#400=EDGE_CURVE('',#390,#300,#370,.T.);
#410=ORIENTED_EDGE('',*,*,#400,.T.);
#420=CARTESIAN_POINT('',(319.3030964467,170.372561759729,2.5));
#430=DIRECTION('',(0.,-1.,0.));
#440=VECTOR('',#430,1.);
#450=LINE('',#420,#440);
#460=CARTESIAN_POINT('',(319.3030964467,170.372561759729,2.5));
#470=VERTEX_POINT('',#460);
#480=EDGE_CURVE('',#470,#390,#450,.T.);
#490=ORIENTED_EDGE('',*,*,#480,.T.);
#500=CARTESIAN_POINT('',(324.8030964467,175.872561759729,2.5));
#510=DIRECTION('',(-0.707106781186548,-0.707106781186548,0.));
#520=VECTOR('',#510,1.);
#530=LINE('',#500,#520);
#540=CARTESIAN_POINT('',(324.8030964467,175.872561759729,2.5));
#550=VERTEX_POINT('',#540);
#560=EDGE_CURVE('',#550,#470,#530,.T.);
#570=ORIENTED_EDGE('',*,*,#560,.T.);
#580=CARTESIAN_POINT('',(347.3030964467,175.872561759729,2.5));
#590=DIRECTION('',(-1.,0.,0.));
#600=VECTOR('',#590,1.);
#610=LINE('',#580,#600);
#620=CARTESIAN_POINT('',(369.8030964467,175.872561759729,2.5));
#630=VERTEX_POINT('',#620);
#640=EDGE_CURVE('',#630,#550,#610,.T.);
#650=ORIENTED_EDGE('',*,*,#640,.T.);
#660=CARTESIAN_POINT('',(375.3030964467,170.372561759729,2.5));
#670=DIRECTION('',(-0.707106781186548,0.707106781186548,0.));
#680=VECTOR('',#670,1.);
#690=LINE('',#660,#680);
#700=EDGE_CURVE('',#130,#630,#690,.T.);
#710=ORIENTED_EDGE('',*,*,#700,.T.);
#720=EDGE_LOOP('',(#710,#650,#570,#490,#410,#320,#240,#150));
#730=FACE_OUTER_BOUND('',#720,.T.);
#740=ADVANCED_FACE('',(#730),#50,.T.);
#750=COLOUR_RGB('',0.501960813999176,0.52549022436142,0.549019634723663)
;
#760=FILL_AREA_STYLE_COLOUR('',#750);
#770=FILL_AREA_STYLE('',(#760));
#780=SURFACE_STYLE_FILL_AREA(#770);
#790=SURFACE_SIDE_STYLE('',(#780));
#800=SURFACE_STYLE_USAGE(.BOTH.,#790);
#810=PRESENTATION_STYLE_ASSIGNMENT((#800));
#820=CARTESIAN_POINT('',(347.3030964467,175.872561759729,0.));
#830=DIRECTION('',(-0.,1.,0.));
#840=DIRECTION('',(1.,0.,0.));
#850=AXIS2_PLACEMENT_3D('',#820,#830,#840);
#860=PLANE('',#850);
#870=CARTESIAN_POINT('',(369.8030964467,175.872561759729,0.));
#880=DIRECTION('',(0.,0.,1.));
#890=VECTOR('',#880,1.);
#900=LINE('',#870,#890);
#910=CARTESIAN_POINT('',(369.8030964467,175.872561759729,0.));
#920=VERTEX_POINT('',#910);
#930=EDGE_CURVE('',#920,#630,#900,.T.);
#940=ORIENTED_EDGE('',*,*,#930,.F.);
#950=ORIENTED_EDGE('',*,*,#640,.F.);
#960=CARTESIAN_POINT('',(324.8030964467,175.872561759729,0.));
#970=DIRECTION('',(0.,0.,1.));
#980=VECTOR('',#970,1.);
#990=LINE('',#960,#980);
#1000=CARTESIAN_POINT('',(324.8030964467,175.872561759729,0.));
#1010=VERTEX_POINT('',#1000);
#1020=EDGE_CURVE('',#1010,#550,#990,.T.);
#1030=ORIENTED_EDGE('',*,*,#1020,.T.);
#1040=CARTESIAN_POINT('',(0.,175.872561759729,0.));
#1050=DIRECTION('',(1.,0.,0.));
#1060=VECTOR('',#1050,1.);
#1070=LINE('',#1040,#1060);
#1080=EDGE_CURVE('',#1010,#920,#1070,.T.);
#1090=ORIENTED_EDGE('',*,*,#1080,.F.);
#1100=EDGE_LOOP('',(#1090,#1030,#950,#940));
#1110=FACE_OUTER_BOUND('',#1100,.T.);
#1120=ADVANCED_FACE('',(#1110),#860,.T.);
#1130=COLOUR_RGB('',0.501960813999176,0.52549022436142,0.549019634723663
);
#1140=FILL_AREA_STYLE_COLOUR('',#1130);
#1150=FILL_AREA_STYLE('',(#1140));
#1160=SURFACE_STYLE_FILL_AREA(#1150);
#1170=SURFACE_SIDE_STYLE('',(#1160));
#1180=SURFACE_STYLE_USAGE(.BOTH.,#1170);
#1190=PRESENTATION_STYLE_ASSIGNMENT((#1180));
#1200=CARTESIAN_POINT('',(375.3030964467,170.372561759729,0.));
#1210=DIRECTION('',(1.,0.,0.));
#1220=DIRECTION('',(0.,-1.,0.));
#1230=AXIS2_PLACEMENT_3D('',#1200,#1210,#1220);
#1240=PLANE('',#1230);
#1250=CARTESIAN_POINT('',(375.3030964467,151.872561759729,0.));
#1260=DIRECTION('',(0.,0.,1.));
#1270=VECTOR('',#1260,1.);
#1280=LINE('',#1250,#1270);
#1290=CARTESIAN_POINT('',(375.3030964467,151.872561759729,0.));
#1300=VERTEX_POINT('',#1290);
#1310=EDGE_CURVE('',#1300,#110,#1280,.T.);
#1320=ORIENTED_EDGE('',*,*,#1310,.F.);
#1330=ORIENTED_EDGE('',*,*,#140,.F.);
#1340=CARTESIAN_POINT('',(375.3030964467,170.372561759729,0.));
#1350=DIRECTION('',(0.,0.,1.));
#1360=VECTOR('',#1350,1.);
#1370=LINE('',#1340,#1360);
#1380=CARTESIAN_POINT('',(375.3030964467,170.372561759729,0.));
#1390=VERTEX_POINT('',#1380);
#1400=EDGE_CURVE('',#1390,#130,#1370,.T.);
#1410=ORIENTED_EDGE('',*,*,#1400,.T.);
#1420=CARTESIAN_POINT('',(375.3030964467,0.,0.));
#1430=DIRECTION('',(0.,-1.,0.));
#1440=VECTOR('',#1430,1.);
#1450=LINE('',#1420,#1440);
#1460=EDGE_CURVE('',#1390,#1300,#1450,.T.);
#1470=ORIENTED_EDGE('',*,*,#1460,.F.);
#1480=EDGE_LOOP('',(#1470,#1410,#1330,#1320));
#1490=FACE_OUTER_BOUND('',#1480,.T.);
#1500=ADVANCED_FACE('',(#1490),#1240,.T.);
#1510=COLOUR_RGB('',0.501960813999176,0.52549022436142,0.549019634723663
);
#1520=FILL_AREA_STYLE_COLOUR('',#1510);
#1530=FILL_AREA_STYLE('',(#1520));
#1540=SURFACE_STYLE_FILL_AREA(#1530);
#1550=SURFACE_SIDE_STYLE('',(#1540));
#1560=SURFACE_STYLE_USAGE(.BOTH.,#1550);
#1570=PRESENTATION_STYLE_ASSIGNMENT((#1560));
#1580=CARTESIAN_POINT('',(319.3030964467,170.372561759729,0.));
#1590=DIRECTION('',(-0.707106781186548,0.707106781186548,0.));
#1600=DIRECTION('',(0.707106781186548,0.707106781186548,0.));
#1610=AXIS2_PLACEMENT_3D('',#1580,#1590,#1600);
#1620=PLANE('',#1610);
#1630=ORIENTED_EDGE('',*,*,#1020,.F.);
#1640=ORIENTED_EDGE('',*,*,#560,.F.);
#1650=CARTESIAN_POINT('',(319.3030964467,170.372561759729,0.));
#1660=DIRECTION('',(0.,0.,1.));
#1670=VECTOR('',#1660,1.);
#1680=LINE('',#1650,#1670);
#1690=CARTESIAN_POINT('',(319.3030964467,170.372561759729,0.));
#1700=VERTEX_POINT('',#1690);
#1710=EDGE_CURVE('',#1700,#470,#1680,.T.);
#1720=ORIENTED_EDGE('',*,*,#1710,.T.);
#1730=CARTESIAN_POINT('',(148.930534686971,0.,0.));
#1740=DIRECTION('',(0.707106781186548,0.707106781186548,0.));
#1750=VECTOR('',#1740,1.);
#1760=LINE('',#1730,#1750);
#1770=EDGE_CURVE('',#1700,#1010,#1760,.T.);
#1780=ORIENTED_EDGE('',*,*,#1770,.F.);
#1790=EDGE_LOOP('',(#1780,#1720,#1640,#1630));
#1800=FACE_OUTER_BOUND('',#1790,.T.);
#1810=ADVANCED_FACE('',(#1800),#1620,.T.);
#1820=COLOUR_RGB('',0.501960813999176,0.52549022436142,0.549019634723663
);
#1830=FILL_AREA_STYLE_COLOUR('',#1820);
#1840=FILL_AREA_STYLE('',(#1830));
#1850=SURFACE_STYLE_FILL_AREA(#1840);
#1860=SURFACE_SIDE_STYLE('',(#1850));
#1870=SURFACE_STYLE_USAGE(.BOTH.,#1860);
#1880=PRESENTATION_STYLE_ASSIGNMENT((#1870));
#1890=CARTESIAN_POINT('',(319.3030964467,151.872561759729,0.));
#1900=DIRECTION('',(-1.,0.,0.));
#1910=DIRECTION('',(0.,1.,0.));
#1920=AXIS2_PLACEMENT_3D('',#1890,#1900,#1910);
#1930=PLANE('',#1920);
#1940=ORIENTED_EDGE('',*,*,#1710,.F.);
#1950=ORIENTED_EDGE('',*,*,#480,.F.);
#1960=CARTESIAN_POINT('',(319.3030964467,151.872561759729,0.));
#1970=DIRECTION('',(0.,0.,1.));
#1980=VECTOR('',#1970,1.);
#1990=LINE('',#1960,#1980);
#2000=CARTESIAN_POINT('',(319.3030964467,151.872561759729,0.));
#2010=VERTEX_POINT('',#2000);
#2020=EDGE_CURVE('',#2010,#390,#1990,.T.);
#2030=ORIENTED_EDGE('',*,*,#2020,.T.);
#2040=CARTESIAN_POINT('',(319.3030964467,0.,0.));
#2050=DIRECTION('',(0.,1.,0.));
#2060=VECTOR('',#2050,1.);
#2070=LINE('',#2040,#2060);
#2080=EDGE_CURVE('',#2010,#1700,#2070,.T.);
#2090=ORIENTED_EDGE('',*,*,#2080,.F.);
#2100=EDGE_LOOP('',(#2090,#2030,#1950,#1940));
#2110=FACE_OUTER_BOUND('',#2100,.T.);
#2120=ADVANCED_FACE('',(#2110),#1930,.T.);
#2130=COLOUR_RGB('',0.501960813999176,0.52549022436142,0.549019634723663
);
#2140=FILL_AREA_STYLE_COLOUR('',#2130);
#2150=FILL_AREA_STYLE('',(#2140));
#2160=SURFACE_STYLE_FILL_AREA(#2150);
#2170=SURFACE_SIDE_STYLE('',(#2160));
#2180=SURFACE_STYLE_USAGE(.BOTH.,#2170);
#2190=PRESENTATION_STYLE_ASSIGNMENT((#2180));
#2200=CARTESIAN_POINT('',(320.3030964467,151.872561759729,0.));
#2210=DIRECTION('',(0.,0.,1.));
#2220=DIRECTION('',(1.,0.,0.));
#2230=AXIS2_PLACEMENT_3D('',#2200,#2210,#2220);
#2240=CYLINDRICAL_SURFACE('',#2230,1.);
#2250=ORIENTED_EDGE('',*,*,#2020,.F.);
#2260=ORIENTED_EDGE('',*,*,#400,.F.);
#2270=CARTESIAN_POINT('',(320.3030964467,150.872561759729,0.));
#2280=DIRECTION('',(0.,0.,1.));
#2290=VECTOR('',#2280,1.);
#2300=LINE('',#2270,#2290);
#2310=CARTESIAN_POINT('',(320.3030964467,150.872561759729,0.));
#2320=VERTEX_POINT('',#2310);
#2330=EDGE_CURVE('',#2320,#300,#2300,.T.);
#2340=ORIENTED_EDGE('',*,*,#2330,.T.);
#2350=CARTESIAN_POINT('',(320.3030964467,151.872561759729,0.));
#2360=DIRECTION('',(0.,0.,1.));
#2370=DIRECTION('',(1.,0.,0.));
#2380=AXIS2_PLACEMENT_3D('',#2350,#2360,#2370);
#2390=CIRCLE('',#2380,1.);
#2400=EDGE_CURVE('',#2010,#2320,#2390,.T.);
#2410=ORIENTED_EDGE('',*,*,#2400,.T.);
#2420=EDGE_LOOP('',(#2410,#2340,#2260,#2250));
#2430=FACE_OUTER_BOUND('',#2420,.T.);
#2440=ADVANCED_FACE('',(#2430),#2240,.T.);
#2450=COLOUR_RGB('',0.501960813999176,0.52549022436142,0.549019634723663
);
#2460=FILL_AREA_STYLE_COLOUR('',#2450);
#2470=FILL_AREA_STYLE('',(#2460));
#2480=SURFACE_STYLE_FILL_AREA(#2470);
#2490=SURFACE_SIDE_STYLE('',(#2480));
#2500=SURFACE_STYLE_USAGE(.BOTH.,#2490);
#2510=PRESENTATION_STYLE_ASSIGNMENT((#2500));
#2520=CARTESIAN_POINT('',(347.3030964467,150.872561759729,0.));
#2530=DIRECTION('',(-0.,-1.,-0.));
#2540=DIRECTION('',(-1.,0.,0.));
#2550=AXIS2_PLACEMENT_3D('',#2520,#2530,#2540);
#2560=PLANE('',#2550);
#2570=ORIENTED_EDGE('',*,*,#2330,.F.);
#2580=ORIENTED_EDGE('',*,*,#310,.F.);
#2590=CARTESIAN_POINT('',(374.3030964467,150.872561759729,0.));
#2600=DIRECTION('',(0.,0.,1.));
#2610=VECTOR('',#2600,1.);
#2620=LINE('',#2590,#2610);
#2630=CARTESIAN_POINT('',(374.3030964467,150.872561759729,0.));
#2640=VERTEX_POINT('',#2630);
#2650=EDGE_CURVE('',#2640,#220,#2620,.T.);
#2660=ORIENTED_EDGE('',*,*,#2650,.T.);
#2670=CARTESIAN_POINT('',(0.,150.872561759729,0.));
#2680=DIRECTION('',(-1.,0.,0.));
#2690=VECTOR('',#2680,1.);
#2700=LINE('',#2670,#2690);
#2710=EDGE_CURVE('',#2640,#2320,#2700,.T.);
#2720=ORIENTED_EDGE('',*,*,#2710,.F.);
#2730=EDGE_LOOP('',(#2720,#2660,#2580,#2570));
#2740=FACE_OUTER_BOUND('',#2730,.T.);
#2750=ADVANCED_FACE('',(#2740),#2560,.T.);
#2760=COLOUR_RGB('',0.501960813999176,0.52549022436142,0.549019634723663
);
#2770=FILL_AREA_STYLE_COLOUR('',#2760);
#2780=FILL_AREA_STYLE('',(#2770));
#2790=SURFACE_STYLE_FILL_AREA(#2780);
#2800=SURFACE_SIDE_STYLE('',(#2790));
#2810=SURFACE_STYLE_USAGE(.BOTH.,#2800);
#2820=PRESENTATION_STYLE_ASSIGNMENT((#2810));
#2830=CARTESIAN_POINT('',(369.8030964467,175.872561759729,0.));
#2840=DIRECTION('',(0.707106781186548,0.707106781186548,0.));
#2850=DIRECTION('',(0.707106781186548,-0.707106781186548,0.));
#2860=AXIS2_PLACEMENT_3D('',#2830,#2840,#2850);
#2870=PLANE('',#2860);
#2880=ORIENTED_EDGE('',*,*,#1400,.F.);
#2890=ORIENTED_EDGE('',*,*,#700,.F.);
#2900=ORIENTED_EDGE('',*,*,#930,.T.);
#2910=CARTESIAN_POINT('',(545.675658206429,0.,0.));
#2920=DIRECTION('',(0.707106781186548,-0.707106781186548,0.));
#2930=VECTOR('',#2920,1.);
#2940=LINE('',#2910,#2930);
#2950=EDGE_CURVE('',#920,#1390,#2940,.T.);
#2960=ORIENTED_EDGE('',*,*,#2950,.F.);
#2970=EDGE_LOOP('',(#2960,#2900,#2890,#2880));
#2980=FACE_OUTER_BOUND('',#2970,.T.);
#2990=ADVANCED_FACE('',(#2980),#2870,.T.);
#3000=COLOUR_RGB('',0.501960813999176,0.52549022436142,0.549019634723663
);
#3010=FILL_AREA_STYLE_COLOUR('',#3000);
#3020=FILL_AREA_STYLE('',(#3010));
#3030=SURFACE_STYLE_FILL_AREA(#3020);
#3040=SURFACE_SIDE_STYLE('',(#3030));
#3050=SURFACE_STYLE_USAGE(.BOTH.,#3040);
#3060=PRESENTATION_STYLE_ASSIGNMENT((#3050));
#3070=CARTESIAN_POINT('',(374.3030964467,151.872561759729,0.));
#3080=DIRECTION('',(0.,0.,1.));
#3090=DIRECTION('',(1.,0.,0.));
#3100=AXIS2_PLACEMENT_3D('',#3070,#3080,#3090);
#3110=CYLINDRICAL_SURFACE('',#3100,1.);
#3120=ORIENTED_EDGE('',*,*,#2650,.F.);
#3130=ORIENTED_EDGE('',*,*,#230,.F.);
#3140=ORIENTED_EDGE('',*,*,#1310,.T.);
#3150=CARTESIAN_POINT('',(374.3030964467,151.872561759729,0.));
#3160=DIRECTION('',(0.,0.,1.));
#3170=DIRECTION('',(1.,0.,0.));
#3180=AXIS2_PLACEMENT_3D('',#3150,#3160,#3170);
#3190=CIRCLE('',#3180,1.);
#3200=EDGE_CURVE('',#2640,#1300,#3190,.T.);
#3210=ORIENTED_EDGE('',*,*,#3200,.T.);
#3220=EDGE_LOOP('',(#3210,#3140,#3130,#3120));
#3230=FACE_OUTER_BOUND('',#3220,.T.);
#3240=ADVANCED_FACE('',(#3230),#3110,.T.);
#3250=COLOUR_RGB('',0.501960813999176,0.52549022436142,0.549019634723663
);
#3260=FILL_AREA_STYLE_COLOUR('',#3250);
#3270=FILL_AREA_STYLE('',(#3260));
#3280=SURFACE_STYLE_FILL_AREA(#3270);
#3290=SURFACE_SIDE_STYLE('',(#3280));
#3300=SURFACE_STYLE_USAGE(.BOTH.,#3290);
#3310=PRESENTATION_STYLE_ASSIGNMENT((#3300));
#3320=CARTESIAN_POINT('',(0.,0.,0.));
#3330=DIRECTION('',(0.,0.,1.));
#3340=DIRECTION('',(1.,0.,0.));
#3350=AXIS2_PLACEMENT_3D('',#3320,#3330,#3340);
#3360=PLANE('',#3350);
#3370=ORIENTED_EDGE('',*,*,#2950,.T.);
#3380=ORIENTED_EDGE('',*,*,#1080,.T.);
#3390=ORIENTED_EDGE('',*,*,#1770,.T.);
#3400=ORIENTED_EDGE('',*,*,#2080,.T.);
#3410=ORIENTED_EDGE('',*,*,#2400,.F.);
#3420=ORIENTED_EDGE('',*,*,#2710,.T.);
#3430=ORIENTED_EDGE('',*,*,#3200,.F.);
#3440=ORIENTED_EDGE('',*,*,#1460,.T.);
#3450=EDGE_LOOP('',(#3440,#3430,#3420,#3410,#3400,#3390,#3380,#3370));
#3460=FACE_OUTER_BOUND('',#3450,.T.);
#3470=ADVANCED_FACE('',(#3460),#3360,.F.);
#3480=COLOUR_RGB('',0.501960813999176,0.52549022436142,0.549019634723663
);
#3490=FILL_AREA_STYLE_COLOUR('',#3480);
#3500=FILL_AREA_STYLE('',(#3490));
#3510=SURFACE_STYLE_FILL_AREA(#3500);
#3520=SURFACE_SIDE_STYLE('',(#3510));
#3530=SURFACE_STYLE_USAGE(.BOTH.,#3520);
#3540=PRESENTATION_STYLE_ASSIGNMENT((#3530));
#3550=CLOSED_SHELL('',(#1120,#1500,#1810,#2120,#2440,#2750,#2990,#3240,
#3470,#740));
#3560=MANIFOLD_SOLID_BREP('',#3550);
#3570=CARTESIAN_POINT('',(0.,0.,0.));
#3580=DIRECTION('',(0.,0.,1.));
#3590=DIRECTION('',(1.,0.,0.));
#3600=AXIS2_PLACEMENT_3D('',#3570,#3580,#3590);
#3610=APPLICATION_CONTEXT(
'CONFIGURATION CONTROLLED 3D DESIGNS OF MECHANICAL PARTS AND ASSEMBLIES 
');
#3620=APPLICATION_PROTOCOL_DEFINITION(' ','config_control_design',1998,
#3610);
#3630=MECHANICAL_CONTEXT('',#3610,'mechanical');
#3640=DESIGN_CONTEXT(' ',#3610,'design');
#3650=PRODUCT('2770794_dp_ukk3-5_select','2770794_dp_ukk3-5_select','',(
#3630));
#3660=PRODUCT_RELATED_PRODUCT_CATEGORY('detail',' ',(#3650));
#3670=PRODUCT_DEFINITION_FORMATION_WITH_SPECIFIED_SOURCE('','',#3650,
.BOUGHT.);
#3680=PERSON(' ',' ',' ',$,$,$);
#3690=ORGANIZATION(' ',' ',' ');
#3700=PERSON_AND_ORGANIZATION(#3680,#3690);
#3710=PERSON_AND_ORGANIZATION_ROLE('design_owner');
#3720=CC_DESIGN_PERSON_AND_ORGANIZATION_ASSIGNMENT(#3700,#3710,(#3650));
#3730=PRODUCT_DEFINITION('',' ',#3670,#3640);
#3740=PRODUCT_DEFINITION_SHAPE('','',#3730);
#3750=PERSON(' ',' ',' ',$,$,$);
#3760=ORGANIZATION(' ',' ',' ');
#3770=PERSON_AND_ORGANIZATION(#3750,#3760);
#3780=PERSON_AND_ORGANIZATION_ROLE('creator');
#3790=CC_DESIGN_PERSON_AND_ORGANIZATION_ASSIGNMENT(#3770,#3780,(#3670));
#3800=CC_DESIGN_PERSON_AND_ORGANIZATION_ASSIGNMENT(#3770,#3780,(#3730));
#3810=PERSON(' ',' ',' ',$,$,$);
#3820=ORGANIZATION(' ',' ',' ');
#3830=PERSON_AND_ORGANIZATION(#3810,#3820);
#3840=PERSON_AND_ORGANIZATION_ROLE('design_supplier');
#3850=CC_DESIGN_PERSON_AND_ORGANIZATION_ASSIGNMENT(#3830,#3840,(#3670));
#3860=CALENDAR_DATE(1993,19,7);
#3870=COORDINATED_UNIVERSAL_TIME_OFFSET(5,0,.BEHIND.);
#3880=LOCAL_TIME(19,46,55.,#3870);
#3890=DATE_AND_TIME(#3860,#3880);
#3900=DATE_TIME_ROLE('creation_date');
#3910=CC_DESIGN_DATE_AND_TIME_ASSIGNMENT(#3890,#3900,(#3730));
#3920=SECURITY_CLASSIFICATION_LEVEL('unclassified');
#3930=SECURITY_CLASSIFICATION(' ',' ',#3920);
#3940=CC_DESIGN_SECURITY_CLASSIFICATION(#3930,(#3670));
#3950=PERSON(' ',' ',' ',$,$,$);
#3960=ORGANIZATION(' ',' ',' ');
#3970=PERSON_AND_ORGANIZATION(#3950,#3960);
#3980=PERSON_AND_ORGANIZATION_ROLE('classification_officer');
#3990=CC_DESIGN_PERSON_AND_ORGANIZATION_ASSIGNMENT(#3970,#3980,(#3930));
#4000=CALENDAR_DATE(1993,17,7);
#4010=COORDINATED_UNIVERSAL_TIME_OFFSET(5,0,.BEHIND.);
#4020=LOCAL_TIME(13,45,20.,#4010);
#4030=DATE_AND_TIME(#4000,#4020);
#4040=DATE_TIME_ROLE('classification_date');
#4050=CC_DESIGN_DATE_AND_TIME_ASSIGNMENT(#4030,#4040,(#3930));
#4060=PERSON(' ',' ',' ',$,$,$);
#4070=ORGANIZATION(' ',' ',' ');
#4080=PERSON_AND_ORGANIZATION(#4060,#4070);
#4090=APPROVAL_STATUS('approved');
#4100=APPROVAL(#4090,' ');
#4110=CALENDAR_DATE(1993,19,7);
#4120=COORDINATED_UNIVERSAL_TIME_OFFSET(5,0,.BEHIND.);
#4130=LOCAL_TIME(19,47,51.,#4120);
#4140=DATE_AND_TIME(#4110,#4130);
#4150=APPROVAL_DATE_TIME(#4140,#4100);
#4160=APPROVAL_ROLE('APPROVER');
#4170=APPROVAL_PERSON_ORGANIZATION(#4080,#4100,#4160);
#4180=CC_DESIGN_APPROVAL(#4100,(#3730));
#4190=PERSON(' ',' ',' ',$,$,$);
#4200=ORGANIZATION(' ',' ',' ');
#4210=PERSON_AND_ORGANIZATION(#4190,#4200);
#4220=APPROVAL_STATUS('approved');
#4230=APPROVAL(#4220,' ');
#4240=CALENDAR_DATE(1993,17,7);
#4250=COORDINATED_UNIVERSAL_TIME_OFFSET(5,0,.BEHIND.);
#4260=LOCAL_TIME(13,29,52.,#4250);
#4270=DATE_AND_TIME(#4240,#4260);
#4280=APPROVAL_DATE_TIME(#4270,#4230);
#4290=APPROVAL_ROLE('APPROVER');
#4300=APPROVAL_PERSON_ORGANIZATION(#4210,#4230,#4290);
#4310=CC_DESIGN_APPROVAL(#4230,(#3670));
#4320=PERSON(' ',' ',' ',$,$,$);
#4330=ORGANIZATION(' ',' ',' ');
#4340=PERSON_AND_ORGANIZATION(#4320,#4330);
#4350=APPROVAL_STATUS('approved');
#4360=APPROVAL(#4350,' ');
#4370=CALENDAR_DATE(1993,17,7);
#4380=COORDINATED_UNIVERSAL_TIME_OFFSET(5,0,.BEHIND.);
#4390=LOCAL_TIME(13,47,28.,#4380);
#4400=DATE_AND_TIME(#4370,#4390);
#4410=APPROVAL_DATE_TIME(#4400,#4360);
#4420=APPROVAL_ROLE('APPROVER');
#4430=APPROVAL_PERSON_ORGANIZATION(#4340,#4360,#4420);
#4440=CC_DESIGN_APPROVAL(#4360,(#3930));
#4450=DIMENSIONAL_EXPONENTS(1.,0.,0.,0.,0.,0.,0.);
#4460=DIMENSIONAL_EXPONENTS(0.,0.,0.,0.,0.,0.,0.);
#4470=DIMENSIONAL_EXPONENTS(0.,0.,0.,0.,0.,0.,0.);
#4480=(LENGTH_UNIT() NAMED_UNIT(*) SI_UNIT(.MILLI.,.METRE.));
#4490=(NAMED_UNIT(*) PLANE_ANGLE_UNIT() SI_UNIT($,.RADIAN.));
#4500=(NAMED_UNIT(*) SI_UNIT($,.STERADIAN.) SOLID_ANGLE_UNIT());
#4510=(GEOMETRIC_REPRESENTATION_CONTEXT(3) 
GLOBAL_UNCERTAINTY_ASSIGNED_CONTEXT((#4520)) 
GLOBAL_UNIT_ASSIGNED_CONTEXT((#4480,#4490,#4500)) REPRESENTATION_CONTEXT
('',''));
#4520=UNCERTAINTY_MEASURE_WITH_UNIT(LENGTH_MEASURE(1.E-6),#4480,
'closure','maximum gap value');
#4530=ADVANCED_BREP_SHAPE_REPRESENTATION('',(#3600,#3560),#4510);
#4540=SHAPE_DEFINITION_REPRESENTATION(#3740,#4530);
#4550=COLOUR_RGB('',0.10196078568697,0.10196078568697,0.);
#4560=FILL_AREA_STYLE_COLOUR('',#4550);
#4570=FILL_AREA_STYLE('',(#4560));
#4580=SURFACE_STYLE_FILL_AREA(#4570);
#4590=SURFACE_SIDE_STYLE('',(#4580));
#4600=SURFACE_STYLE_USAGE(.BOTH.,#4590);
#4610=PRESENTATION_STYLE_ASSIGNMENT((#4600));
#4620=STYLED_ITEM('',(#4610),#3560);
#4630=OVER_RIDING_STYLED_ITEM('',(#810),#740,#4620);
#4640=OVER_RIDING_STYLED_ITEM('',(#1190),#1120,#4620);
#4650=OVER_RIDING_STYLED_ITEM('',(#1570),#1500,#4620);
#4660=OVER_RIDING_STYLED_ITEM('',(#1880),#1810,#4620);
#4670=OVER_RIDING_STYLED_ITEM('',(#2190),#2120,#4620);
#4680=OVER_RIDING_STYLED_ITEM('',(#2510),#2440,#4620);
#4690=OVER_RIDING_STYLED_ITEM('',(#2820),#2750,#4620);
#4700=OVER_RIDING_STYLED_ITEM('',(#3060),#2990,#4620);
#4710=OVER_RIDING_STYLED_ITEM('',(#3310),#3240,#4620);
#4720=OVER_RIDING_STYLED_ITEM('',(#3540),#3470,#4620);
#4730=MECHANICAL_DESIGN_GEOMETRIC_PRESENTATION_REPRESENTATION('',(#4620,
#4630,#4640,#4650,#4660,#4670,#4680,#4690,#4700,#4710,#4720),#4510);
#4740=CARTESIAN_POINT('',(-365.3530964467,-148.222561759729,0.));
#4750=DIRECTION('',(0.,0.,1.));
#4760=DIRECTION('',(1.,0.,0.));
#4770=AXIS2_PLACEMENT_3D('',#4740,#4750,#4760);
#4780=ITEM_DEFINED_TRANSFORMATION('2770794_dp_ukk3-5_select','',#3600,
#4770);
#4790=APPLICATION_CONTEXT(
'CONFIGURATION CONTROLLED 3D DESIGNS OF MECHANICAL PARTS AND ASSEMBLIES 
');
#4800=APPLICATION_PROTOCOL_DEFINITION(' ','config_control_design',1998,
#4790);
#4810=MECHANICAL_CONTEXT('',#4790,'mechanical');
#4820=DESIGN_CONTEXT(' ',#4790,'design');
#4830=PRODUCT('2770794_dp_ukk3-5_select','2770794_dp_ukk3-5_select','',(
#4810));
#4840=PRODUCT_RELATED_PRODUCT_CATEGORY('detail',' ',(#4830));
#4850=PRODUCT_DEFINITION_FORMATION_WITH_SPECIFIED_SOURCE('','',#4830,
.BOUGHT.);
#4860=PERSON(' ',' ',' ',$,$,$);
#4870=ORGANIZATION(' ',' ',' ');
#4880=PERSON_AND_ORGANIZATION(#4860,#4870);
#4890=PERSON_AND_ORGANIZATION_ROLE('design_owner');
#4900=CC_DESIGN_PERSON_AND_ORGANIZATION_ASSIGNMENT(#4880,#4890,(#4830));
#4910=PRODUCT_DEFINITION('',' ',#4850,#4820);
#4920=PRODUCT_DEFINITION_SHAPE('','',#4910);
#4930=PERSON(' ',' ',' ',$,$,$);
#4940=ORGANIZATION(' ',' ',' ');
#4950=PERSON_AND_ORGANIZATION(#4930,#4940);
#4960=PERSON_AND_ORGANIZATION_ROLE('creator');
#4970=CC_DESIGN_PERSON_AND_ORGANIZATION_ASSIGNMENT(#4950,#4960,(#4850));
#4980=CC_DESIGN_PERSON_AND_ORGANIZATION_ASSIGNMENT(#4950,#4960,(#4910));
#4990=PERSON(' ',' ',' ',$,$,$);
#5000=ORGANIZATION(' ',' ',' ');
#5010=PERSON_AND_ORGANIZATION(#4990,#5000);
#5020=PERSON_AND_ORGANIZATION_ROLE('design_supplier');
#5030=CC_DESIGN_PERSON_AND_ORGANIZATION_ASSIGNMENT(#5010,#5020,(#4850));
#5040=CALENDAR_DATE(1993,19,7);
#5050=COORDINATED_UNIVERSAL_TIME_OFFSET(5,0,.BEHIND.);
#5060=LOCAL_TIME(19,46,55.,#5050);
#5070=DATE_AND_TIME(#5040,#5060);
#5080=DATE_TIME_ROLE('creation_date');
#5090=CC_DESIGN_DATE_AND_TIME_ASSIGNMENT(#5070,#5080,(#4910));
#5100=SECURITY_CLASSIFICATION_LEVEL('unclassified');
#5110=SECURITY_CLASSIFICATION(' ',' ',#5100);
#5120=CC_DESIGN_SECURITY_CLASSIFICATION(#5110,(#4850));
#5130=PERSON(' ',' ',' ',$,$,$);
#5140=ORGANIZATION(' ',' ',' ');
#5150=PERSON_AND_ORGANIZATION(#5130,#5140);
#5160=PERSON_AND_ORGANIZATION_ROLE('classification_officer');
#5170=CC_DESIGN_PERSON_AND_ORGANIZATION_ASSIGNMENT(#5150,#5160,(#5110));
#5180=CALENDAR_DATE(1993,17,7);
#5190=COORDINATED_UNIVERSAL_TIME_OFFSET(5,0,.BEHIND.);
#5200=LOCAL_TIME(13,45,20.,#5190);
#5210=DATE_AND_TIME(#5180,#5200);
#5220=DATE_TIME_ROLE('classification_date');
#5230=CC_DESIGN_DATE_AND_TIME_ASSIGNMENT(#5210,#5220,(#5110));
#5240=PERSON(' ',' ',' ',$,$,$);
#5250=ORGANIZATION(' ',' ',' ');
#5260=PERSON_AND_ORGANIZATION(#5240,#5250);
#5270=APPROVAL_STATUS('approved');
#5280=APPROVAL(#5270,' ');
#5290=CALENDAR_DATE(1993,19,7);
#5300=COORDINATED_UNIVERSAL_TIME_OFFSET(5,0,.BEHIND.);
#5310=LOCAL_TIME(19,47,51.,#5300);
#5320=DATE_AND_TIME(#5290,#5310);
#5330=APPROVAL_DATE_TIME(#5320,#5280);
#5340=APPROVAL_ROLE('APPROVER');
#5350=APPROVAL_PERSON_ORGANIZATION(#5260,#5280,#5340);
#5360=CC_DESIGN_APPROVAL(#5280,(#4910));
#5370=PERSON(' ',' ',' ',$,$,$);
#5380=ORGANIZATION(' ',' ',' ');
#5390=PERSON_AND_ORGANIZATION(#5370,#5380);
#5400=APPROVAL_STATUS('approved');
#5410=APPROVAL(#5400,' ');
#5420=CALENDAR_DATE(1993,17,7);
#5430=COORDINATED_UNIVERSAL_TIME_OFFSET(5,0,.BEHIND.);
#5440=LOCAL_TIME(13,29,52.,#5430);
#5450=DATE_AND_TIME(#5420,#5440);
#5460=APPROVAL_DATE_TIME(#5450,#5410);
#5470=APPROVAL_ROLE('APPROVER');
#5480=APPROVAL_PERSON_ORGANIZATION(#5390,#5410,#5470);
#5490=CC_DESIGN_APPROVAL(#5410,(#4850));
#5500=PERSON(' ',' ',' ',$,$,$);
#5510=ORGANIZATION(' ',' ',' ');
#5520=PERSON_AND_ORGANIZATION(#5500,#5510);
#5530=APPROVAL_STATUS('approved');
#5540=APPROVAL(#5530,' ');
#5550=CALENDAR_DATE(1993,17,7);
#5560=COORDINATED_UNIVERSAL_TIME_OFFSET(5,0,.BEHIND.);
#5570=LOCAL_TIME(13,47,28.,#5560);
#5580=DATE_AND_TIME(#5550,#5570);
#5590=APPROVAL_DATE_TIME(#5580,#5540);
#5600=APPROVAL_ROLE('APPROVER');
#5610=APPROVAL_PERSON_ORGANIZATION(#5520,#5540,#5600);
#5620=CC_DESIGN_APPROVAL(#5540,(#5110));
#5630=DIMENSIONAL_EXPONENTS(1.,0.,0.,0.,0.,0.,0.);
#5640=DIMENSIONAL_EXPONENTS(0.,0.,0.,0.,0.,0.,0.);
#5650=DIMENSIONAL_EXPONENTS(0.,0.,0.,0.,0.,0.,0.);
#5660=(LENGTH_UNIT() NAMED_UNIT(*) SI_UNIT(.MILLI.,.METRE.));
#5670=(NAMED_UNIT(*) PLANE_ANGLE_UNIT() SI_UNIT($,.RADIAN.));
#5680=(NAMED_UNIT(*) SI_UNIT($,.STERADIAN.) SOLID_ANGLE_UNIT());
#5690=(GEOMETRIC_REPRESENTATION_CONTEXT(3) 
GLOBAL_UNCERTAINTY_ASSIGNED_CONTEXT((#5700)) 
GLOBAL_UNIT_ASSIGNED_CONTEXT((#5660,#5670,#5680)) REPRESENTATION_CONTEXT
('',''));
#5700=UNCERTAINTY_MEASURE_WITH_UNIT(LENGTH_MEASURE(1.E-6),#5660,
'closure','maximum gap value');
#5710=SHAPE_REPRESENTATION('',(#3600,#4770),#5690);
#5720=SHAPE_DEFINITION_REPRESENTATION(#4920,#5710);
#5730=(REPRESENTATION_RELATIONSHIP('','',#4530,#5710) 
REPRESENTATION_RELATIONSHIP_WITH_TRANSFORMATION(#4780) 
SHAPE_REPRESENTATION_RELATIONSHIP());
#5740=NEXT_ASSEMBLY_USAGE_OCCURRENCE('1','','2770794_dp_ukk3-5_select',
#4910,#3730,'');
#5750=PRODUCT_DEFINITION_SHAPE('','',#5740);
#5760=CONTEXT_DEPENDENT_SHAPE_REPRESENTATION(#5730,#5750);
#5770=SECURITY_CLASSIFICATION_LEVEL('unclassified');
#5780=SECURITY_CLASSIFICATION(' ',' ',#5770);
#5790=CC_DESIGN_SECURITY_CLASSIFICATION(#5780,(#5740));
#5800=PERSON(' ',' ',' ',$,$,$);
#5810=ORGANIZATION(' ',' ','');
#5820=PERSON_AND_ORGANIZATION(#5800,#5810);
#5830=PERSON_AND_ORGANIZATION_ROLE('classification_officer');
#5840=CC_DESIGN_PERSON_AND_ORGANIZATION_ASSIGNMENT(#5820,#5830,(#5780));
#5850=CALENDAR_DATE(1993,17,7);
#5860=COORDINATED_UNIVERSAL_TIME_OFFSET(5,0,.BEHIND.);
#5870=LOCAL_TIME(13,45,20.,#5860);
#5880=DATE_AND_TIME(#5850,#5870);
#5890=DATE_TIME_ROLE('classification_date');
#5900=CC_DESIGN_DATE_AND_TIME_ASSIGNMENT(#5880,#5890,(#5780));
#5910=PERSON(' ',' ',' ',$,$,$);
#5920=ORGANIZATION(' ',' ',' ');
#5930=PERSON_AND_ORGANIZATION(#5910,#5920);
#5940=APPROVAL_STATUS('approved');
#5950=APPROVAL(#5940,' ');
#5960=CALENDAR_DATE(1993,19,7);
#5970=COORDINATED_UNIVERSAL_TIME_OFFSET(5,0,.BEHIND.);
#5980=LOCAL_TIME(19,47,51.,#5970);
#5990=DATE_AND_TIME(#5960,#5980);
#6000=APPROVAL_DATE_TIME(#5990,#5950);
#6010=APPROVAL_ROLE('APPROVER');
#6020=APPROVAL_PERSON_ORGANIZATION(#5930,#5950,#6010);
#6030=CC_DESIGN_APPROVAL(#5950,(#5780));
ENDSEC;
END-ISO-10303-21;
