ISO-10303-21;
HEADER;
FILE_DESCRIPTION(('SolidDesigner STEP Export'),'2;1');
FILE_NAME('0801681_NS_35_7.5_UNPERF_2000MM-select.stp',
'2013-11-15T 9:06:16',(''),(''),
'Creo Elements/Direct Modeling STEP processor for AP214 (Solid Model)',
'Creo Elements/Direct Modeling 18.1B  29-Sep-2012 (C) Parametric Technol
ogy GmbH','');
FILE_SCHEMA(('AUTOMOTIVE_DESIGN { 1 0 10303 214 1 1 1 1 }'));
ENDSEC;
DATA;
#10=CARTESIAN_POINT('',(0.,0.,100.));
#20=DIRECTION('',(0.,0.,1.));
#30=DIRECTION('',(1.,0.,0.));
#40=AXIS2_PLACEMENT_3D('',#10,#20,#30);
#50=PLANE('',#40);
#60=CARTESIAN_POINT('',(0.,-51.5251147901442,100.));
#70=DIRECTION('',(1.,0.,0.));
#80=VECTOR('',#70,1.);
#90=LINE('',#60,#80);
#100=CARTESIAN_POINT('',(108.338901733169,-51.5251147901442,100.));
#110=VERTEX_POINT('',#100);
#120=CARTESIAN_POINT('',(135.33890173317,-51.5251147901442,100.));
#130=VERTEX_POINT('',#120);
#140=EDGE_CURVE('',#110,#130,#90,.T.);
#150=ORIENTED_EDGE('',*,*,#140,.T.);
#160=CARTESIAN_POINT('',(108.338901733169,0.,100.));
#170=DIRECTION('',(0.,-1.,0.));
#180=VECTOR('',#170,1.);
#190=LINE('',#160,#180);
#200=CARTESIAN_POINT('',(108.338901733169,-45.0251147901442,100.));
#210=VERTEX_POINT('',#200);
#220=EDGE_CURVE('',#210,#110,#190,.T.);
#230=ORIENTED_EDGE('',*,*,#220,.T.);
#240=CARTESIAN_POINT('',(0.,-45.0251147901442,100.));
#250=DIRECTION('',(1.,0.,0.));
#260=VECTOR('',#250,1.);
#270=LINE('',#240,#260);
#280=CARTESIAN_POINT('',(104.338901733169,-45.0251147901442,100.));
#290=VERTEX_POINT('',#280);
#300=EDGE_CURVE('',#290,#210,#270,.T.);
#310=ORIENTED_EDGE('',*,*,#300,.T.);
#320=CARTESIAN_POINT('',(104.338901733169,0.,100.));
#330=DIRECTION('',(0.,-1.,0.));
#340=VECTOR('',#330,1.);
#350=LINE('',#320,#340);
#360=CARTESIAN_POINT('',(104.338901733169,-44.0251147901442,100.));
#370=VERTEX_POINT('',#360);
#380=EDGE_CURVE('',#370,#290,#350,.T.);
#390=ORIENTED_EDGE('',*,*,#380,.T.);
#400=CARTESIAN_POINT('',(0.,-44.0251147901442,100.));
#410=DIRECTION('',(-1.,0.,0.));
#420=VECTOR('',#410,1.);
#430=LINE('',#400,#420);
#440=CARTESIAN_POINT('',(109.338901733169,-44.0251147901442,100.));
#450=VERTEX_POINT('',#440);
#460=EDGE_CURVE('',#450,#370,#430,.T.);
#470=ORIENTED_EDGE('',*,*,#460,.T.);
#480=CARTESIAN_POINT('',(109.338901733169,0.,100.));
#490=DIRECTION('',(0.,1.,0.));
#500=VECTOR('',#490,1.);
#510=LINE('',#480,#500);
#520=CARTESIAN_POINT('',(109.338901733169,-50.5251147901442,100.));
#530=VERTEX_POINT('',#520);
#540=EDGE_CURVE('',#530,#450,#510,.T.);
#550=ORIENTED_EDGE('',*,*,#540,.T.);
#560=CARTESIAN_POINT('',(0.,-50.5251147901442,100.));
#570=DIRECTION('',(-1.,0.,0.));
#580=VECTOR('',#570,1.);
#590=LINE('',#560,#580);
#600=CARTESIAN_POINT('',(134.33890173317,-50.5251147901442,100.));
#610=VERTEX_POINT('',#600);
#620=EDGE_CURVE('',#610,#530,#590,.T.);
#630=ORIENTED_EDGE('',*,*,#620,.T.);
#640=CARTESIAN_POINT('',(134.33890173317,0.,100.));
#650=DIRECTION('',(0.,-1.,0.));
#660=VECTOR('',#650,1.);
#670=LINE('',#640,#660);
#680=CARTESIAN_POINT('',(134.33890173317,-44.0251147901442,100.));
#690=VERTEX_POINT('',#680);
#700=EDGE_CURVE('',#690,#610,#670,.T.);
#710=ORIENTED_EDGE('',*,*,#700,.T.);
#720=CARTESIAN_POINT('',(0.,-44.0251147901442,100.));
#730=DIRECTION('',(-1.,0.,0.));
#740=VECTOR('',#730,1.);
#750=LINE('',#720,#740);
#760=CARTESIAN_POINT('',(139.33890173317,-44.0251147901442,100.));
#770=VERTEX_POINT('',#760);
#780=EDGE_CURVE('',#770,#690,#750,.T.);
#790=ORIENTED_EDGE('',*,*,#780,.T.);
#800=CARTESIAN_POINT('',(139.33890173317,0.,100.));
#810=DIRECTION('',(0.,1.,0.));
#820=VECTOR('',#810,1.);
#830=LINE('',#800,#820);
#840=CARTESIAN_POINT('',(139.33890173317,-45.0251147901442,100.));
#850=VERTEX_POINT('',#840);
#860=EDGE_CURVE('',#850,#770,#830,.T.);
#870=ORIENTED_EDGE('',*,*,#860,.T.);
#880=CARTESIAN_POINT('',(0.,-45.0251147901442,100.));
#890=DIRECTION('',(1.,0.,0.));
#900=VECTOR('',#890,1.);
#910=LINE('',#880,#900);
#920=CARTESIAN_POINT('',(135.33890173317,-45.0251147901442,100.));
#930=VERTEX_POINT('',#920);
#940=EDGE_CURVE('',#930,#850,#910,.T.);
#950=ORIENTED_EDGE('',*,*,#940,.T.);
#960=CARTESIAN_POINT('',(135.33890173317,0.,100.));
#970=DIRECTION('',(0.,1.,0.));
#980=VECTOR('',#970,1.);
#990=LINE('',#960,#980);
#1000=EDGE_CURVE('',#130,#930,#990,.T.);
#1010=ORIENTED_EDGE('',*,*,#1000,.T.);
#1020=EDGE_LOOP('',(#1010,#950,#870,#790,#710,#630,#550,#470,#390,#310,
#230,#150));
#1030=FACE_OUTER_BOUND('',#1020,.T.);
#1040=ADVANCED_FACE('',(#1030),#50,.T.);
#1050=COLOUR_RGB('',0.501960813999176,0.52549022436142,0.501960813999176
);
#1060=FILL_AREA_STYLE_COLOUR('',#1050);
#1070=FILL_AREA_STYLE('',(#1060));
#1080=SURFACE_STYLE_FILL_AREA(#1070);
#1090=SURFACE_SIDE_STYLE('',(#1080));
#1100=SURFACE_STYLE_USAGE(.BOTH.,#1090);
#1110=PRESENTATION_STYLE_ASSIGNMENT((#1100));
#1120=CARTESIAN_POINT('',(108.338901733169,-49.7251147901443,0.));
#1130=DIRECTION('',(-1.,0.,0.));
#1140=DIRECTION('',(0.,1.,0.));
#1150=AXIS2_PLACEMENT_3D('',#1120,#1130,#1140);
#1160=PLANE('',#1150);
#1170=CARTESIAN_POINT('',(108.338901733169,0.,-1900.));
#1180=DIRECTION('',(0.,1.,0.));
#1190=VECTOR('',#1180,1.);
#1200=LINE('',#1170,#1190);
#1210=CARTESIAN_POINT('',(108.338901733169,-51.5251147901442,-1900.));
#1220=VERTEX_POINT('',#1210);
#1230=CARTESIAN_POINT('',(108.338901733169,-45.0251147901442,-1900.));
#1240=VERTEX_POINT('',#1230);
#1250=EDGE_CURVE('',#1220,#1240,#1200,.T.);
#1260=ORIENTED_EDGE('',*,*,#1250,.F.);
#1270=CARTESIAN_POINT('',(108.338901733169,-45.0251147901442,0.));
#1280=DIRECTION('',(0.,0.,-1.));
#1290=VECTOR('',#1280,1.);
#1300=LINE('',#1270,#1290);
#1310=EDGE_CURVE('',#210,#1240,#1300,.T.);
#1320=ORIENTED_EDGE('',*,*,#1310,.T.);
#1330=ORIENTED_EDGE('',*,*,#220,.F.);
#1340=CARTESIAN_POINT('',(108.338901733169,-51.5251147901442,0.));
#1350=DIRECTION('',(0.,0.,-1.));
#1360=VECTOR('',#1350,1.);
#1370=LINE('',#1340,#1360);
#1380=EDGE_CURVE('',#110,#1220,#1370,.T.);
#1390=ORIENTED_EDGE('',*,*,#1380,.F.);
#1400=EDGE_LOOP('',(#1390,#1330,#1320,#1260));
#1410=FACE_OUTER_BOUND('',#1400,.T.);
#1420=ADVANCED_FACE('',(#1410),#1160,.T.);
#1430=COLOUR_RGB('',0.501960813999176,0.52549022436142,0.501960813999176
);
#1440=FILL_AREA_STYLE_COLOUR('',#1430);
#1450=FILL_AREA_STYLE('',(#1440));
#1460=SURFACE_STYLE_FILL_AREA(#1450);
#1470=SURFACE_SIDE_STYLE('',(#1460));
#1480=SURFACE_STYLE_USAGE(.BOTH.,#1470);
#1490=PRESENTATION_STYLE_ASSIGNMENT((#1480));
#1500=CARTESIAN_POINT('',(104.338901733169,-45.0251147901442,0.));
#1510=DIRECTION('',(-1.,0.,0.));
#1520=DIRECTION('',(0.,1.,0.));
#1530=AXIS2_PLACEMENT_3D('',#1500,#1510,#1520);
#1540=PLANE('',#1530);
#1550=CARTESIAN_POINT('',(104.338901733169,0.,-1900.));
#1560=DIRECTION('',(0.,-1.,0.));
#1570=VECTOR('',#1560,1.);
#1580=LINE('',#1550,#1570);
#1590=CARTESIAN_POINT('',(104.338901733169,-44.0251147901442,-1900.));
#1600=VERTEX_POINT('',#1590);
#1610=CARTESIAN_POINT('',(104.338901733169,-45.0251147901442,-1900.));
#1620=VERTEX_POINT('',#1610);
#1630=EDGE_CURVE('',#1600,#1620,#1580,.T.);
#1640=ORIENTED_EDGE('',*,*,#1630,.T.);
#1650=CARTESIAN_POINT('',(104.338901733169,-44.0251147901442,-200.));
#1660=DIRECTION('',(0.,0.,-1.));
#1670=VECTOR('',#1660,1.);
#1680=LINE('',#1650,#1670);
#1690=EDGE_CURVE('',#370,#1600,#1680,.T.);
#1700=ORIENTED_EDGE('',*,*,#1690,.T.);
#1710=ORIENTED_EDGE('',*,*,#380,.F.);
#1720=CARTESIAN_POINT('',(104.338901733169,-45.0251147901442,-200.));
#1730=DIRECTION('',(0.,0.,-1.));
#1740=VECTOR('',#1730,1.);
#1750=LINE('',#1720,#1740);
#1760=EDGE_CURVE('',#290,#1620,#1750,.T.);
#1770=ORIENTED_EDGE('',*,*,#1760,.F.);
#1780=EDGE_LOOP('',(#1770,#1710,#1700,#1640));
#1790=FACE_OUTER_BOUND('',#1780,.T.);
#1800=ADVANCED_FACE('',(#1790),#1540,.T.);
#1810=COLOUR_RGB('',0.501960813999176,0.52549022436142,0.501960813999176
);
#1820=FILL_AREA_STYLE_COLOUR('',#1810);
#1830=FILL_AREA_STYLE('',(#1820));
#1840=SURFACE_STYLE_FILL_AREA(#1830);
#1850=SURFACE_SIDE_STYLE('',(#1840));
#1860=SURFACE_STYLE_USAGE(.BOTH.,#1850);
#1870=PRESENTATION_STYLE_ASSIGNMENT((#1860));
#1880=CARTESIAN_POINT('',(133.53890173317,-51.5251147901442,0.));
#1890=DIRECTION('',(-0.,-1.,-0.));
#1900=DIRECTION('',(-1.,0.,0.));
#1910=AXIS2_PLACEMENT_3D('',#1880,#1890,#1900);
#1920=PLANE('',#1910);
#1930=CARTESIAN_POINT('',(0.,-51.5251147901442,-1900.));
#1940=DIRECTION('',(-1.,0.,0.));
#1950=VECTOR('',#1940,1.);
#1960=LINE('',#1930,#1950);
#1970=CARTESIAN_POINT('',(135.33890173317,-51.5251147901442,-1900.));
#1980=VERTEX_POINT('',#1970);
#1990=EDGE_CURVE('',#1980,#1220,#1960,.T.);
#2000=ORIENTED_EDGE('',*,*,#1990,.F.);
#2010=ORIENTED_EDGE('',*,*,#1380,.T.);
#2020=ORIENTED_EDGE('',*,*,#140,.F.);
#2030=CARTESIAN_POINT('',(135.33890173317,-51.5251147901442,0.));
#2040=DIRECTION('',(0.,0.,-1.));
#2050=VECTOR('',#2040,1.);
#2060=LINE('',#2030,#2050);
#2070=EDGE_CURVE('',#130,#1980,#2060,.T.);
#2080=ORIENTED_EDGE('',*,*,#2070,.F.);
#2090=EDGE_LOOP('',(#2080,#2020,#2010,#2000));
#2100=FACE_OUTER_BOUND('',#2090,.T.);
#2110=ADVANCED_FACE('',(#2100),#1920,.T.);
#2120=COLOUR_RGB('',0.501960813999176,0.52549022436142,0.501960813999176
);
#2130=FILL_AREA_STYLE_COLOUR('',#2120);
#2140=FILL_AREA_STYLE('',(#2130));
#2150=SURFACE_STYLE_FILL_AREA(#2140);
#2160=SURFACE_SIDE_STYLE('',(#2150));
#2170=SURFACE_STYLE_USAGE(.BOTH.,#2160);
#2180=PRESENTATION_STYLE_ASSIGNMENT((#2170));
#2190=CARTESIAN_POINT('',(110.13890173317,-50.5251147901442,0.));
#2200=DIRECTION('',(-0.,1.,0.));
#2210=DIRECTION('',(1.,0.,0.));
#2220=AXIS2_PLACEMENT_3D('',#2190,#2200,#2210);
#2230=PLANE('',#2220);
#2240=CARTESIAN_POINT('',(134.33890173317,-50.5251147901442,0.));
#2250=DIRECTION('',(0.,0.,-1.));
#2260=VECTOR('',#2250,1.);
#2270=LINE('',#2240,#2260);
#2280=CARTESIAN_POINT('',(134.33890173317,-50.5251147901442,-1900.));
#2290=VERTEX_POINT('',#2280);
#2300=EDGE_CURVE('',#610,#2290,#2270,.T.);
#2310=ORIENTED_EDGE('',*,*,#2300,.T.);
#2320=ORIENTED_EDGE('',*,*,#620,.F.);
#2330=CARTESIAN_POINT('',(109.338901733169,-50.5251147901442,0.));
#2340=DIRECTION('',(0.,0.,-1.));
#2350=VECTOR('',#2340,1.);
#2360=LINE('',#2330,#2350);
#2370=CARTESIAN_POINT('',(109.338901733169,-50.5251147901442,-1900.));
#2380=VERTEX_POINT('',#2370);
#2390=EDGE_CURVE('',#530,#2380,#2360,.T.);
#2400=ORIENTED_EDGE('',*,*,#2390,.F.);
#2410=CARTESIAN_POINT('',(0.,-50.5251147901442,-1900.));
#2420=DIRECTION('',(1.,0.,0.));
#2430=VECTOR('',#2420,1.);
#2440=LINE('',#2410,#2430);
#2450=EDGE_CURVE('',#2380,#2290,#2440,.T.);
#2460=ORIENTED_EDGE('',*,*,#2450,.F.);
#2470=EDGE_LOOP('',(#2460,#2400,#2320,#2310));
#2480=FACE_OUTER_BOUND('',#2470,.T.);
#2490=ADVANCED_FACE('',(#2480),#2230,.T.);
#2500=COLOUR_RGB('',0.501960813999176,0.52549022436142,0.501960813999176
);
#2510=FILL_AREA_STYLE_COLOUR('',#2500);
#2520=FILL_AREA_STYLE('',(#2510));
#2530=SURFACE_STYLE_FILL_AREA(#2520);
#2540=SURFACE_SIDE_STYLE('',(#2530));
#2550=SURFACE_STYLE_USAGE(.BOTH.,#2540);
#2560=PRESENTATION_STYLE_ASSIGNMENT((#2550));
#2570=CARTESIAN_POINT('',(135.33890173317,-45.8251147901442,0.));
#2580=DIRECTION('',(1.,0.,0.));
#2590=DIRECTION('',(0.,-1.,0.));
#2600=AXIS2_PLACEMENT_3D('',#2570,#2580,#2590);
#2610=PLANE('',#2600);
#2620=ORIENTED_EDGE('',*,*,#2070,.T.);
#2630=ORIENTED_EDGE('',*,*,#1000,.F.);
#2640=CARTESIAN_POINT('',(135.33890173317,-45.0251147901442,0.));
#2650=DIRECTION('',(0.,0.,-1.));
#2660=VECTOR('',#2650,1.);
#2670=LINE('',#2640,#2660);
#2680=CARTESIAN_POINT('',(135.33890173317,-45.0251147901442,-1900.));
#2690=VERTEX_POINT('',#2680);
#2700=EDGE_CURVE('',#930,#2690,#2670,.T.);
#2710=ORIENTED_EDGE('',*,*,#2700,.F.);
#2720=CARTESIAN_POINT('',(135.33890173317,0.,-1900.));
#2730=DIRECTION('',(0.,-1.,0.));
#2740=VECTOR('',#2730,1.);
#2750=LINE('',#2720,#2740);
#2760=EDGE_CURVE('',#2690,#1980,#2750,.T.);
#2770=ORIENTED_EDGE('',*,*,#2760,.F.);
#2780=EDGE_LOOP('',(#2770,#2710,#2630,#2620));
#2790=FACE_OUTER_BOUND('',#2780,.T.);
#2800=ADVANCED_FACE('',(#2790),#2610,.T.);
#2810=COLOUR_RGB('',0.501960813999176,0.52549022436142,0.501960813999176
);
#2820=FILL_AREA_STYLE_COLOUR('',#2810);
#2830=FILL_AREA_STYLE('',(#2820));
#2840=SURFACE_STYLE_FILL_AREA(#2830);
#2850=SURFACE_SIDE_STYLE('',(#2840));
#2860=SURFACE_STYLE_USAGE(.BOTH.,#2850);
#2870=PRESENTATION_STYLE_ASSIGNMENT((#2860));
#2880=CARTESIAN_POINT('',(104.338901733169,-44.0251147901442,0.));
#2890=DIRECTION('',(-0.,1.,0.));
#2900=DIRECTION('',(1.,0.,0.));
#2910=AXIS2_PLACEMENT_3D('',#2880,#2890,#2900);
#2920=PLANE('',#2910);
#2930=CARTESIAN_POINT('',(109.338901733169,-44.0251147901442,0.));
#2940=DIRECTION('',(0.,0.,-1.));
#2950=VECTOR('',#2940,1.);
#2960=LINE('',#2930,#2950);
#2970=CARTESIAN_POINT('',(109.338901733169,-44.0251147901442,-1900.));
#2980=VERTEX_POINT('',#2970);
#2990=EDGE_CURVE('',#450,#2980,#2960,.T.);
#3000=ORIENTED_EDGE('',*,*,#2990,.T.);
#3010=ORIENTED_EDGE('',*,*,#460,.F.);
#3020=ORIENTED_EDGE('',*,*,#1690,.F.);
#3030=CARTESIAN_POINT('',(0.,-44.0251147901442,-1900.));
#3040=DIRECTION('',(1.,0.,0.));
#3050=VECTOR('',#3040,1.);
#3060=LINE('',#3030,#3050);
#3070=EDGE_CURVE('',#1600,#2980,#3060,.T.);
#3080=ORIENTED_EDGE('',*,*,#3070,.F.);
#3090=EDGE_LOOP('',(#3080,#3020,#3010,#3000));
#3100=FACE_OUTER_BOUND('',#3090,.T.);
#3110=ADVANCED_FACE('',(#3100),#2920,.T.);
#3120=COLOUR_RGB('',0.501960813999176,0.52549022436142,0.501960813999176
);
#3130=FILL_AREA_STYLE_COLOUR('',#3120);
#3140=FILL_AREA_STYLE('',(#3130));
#3150=SURFACE_STYLE_FILL_AREA(#3140);
#3160=SURFACE_SIDE_STYLE('',(#3150));
#3170=SURFACE_STYLE_USAGE(.BOTH.,#3160);
#3180=PRESENTATION_STYLE_ASSIGNMENT((#3170));
#3190=CARTESIAN_POINT('',(139.33890173317,-45.0251147901442,0.));
#3200=DIRECTION('',(-0.,-1.,-0.));
#3210=DIRECTION('',(-1.,0.,0.));
#3220=AXIS2_PLACEMENT_3D('',#3190,#3200,#3210);
#3230=PLANE('',#3220);
#3240=ORIENTED_EDGE('',*,*,#2700,.T.);
#3250=ORIENTED_EDGE('',*,*,#940,.F.);
#3260=CARTESIAN_POINT('',(139.33890173317,-45.0251147901442,0.));
#3270=DIRECTION('',(0.,0.,-1.));
#3280=VECTOR('',#3270,1.);
#3290=LINE('',#3260,#3280);
#3300=CARTESIAN_POINT('',(139.33890173317,-45.0251147901442,-1900.));
#3310=VERTEX_POINT('',#3300);
#3320=EDGE_CURVE('',#850,#3310,#3290,.T.);
#3330=ORIENTED_EDGE('',*,*,#3320,.F.);
#3340=CARTESIAN_POINT('',(0.,-45.0251147901442,-1900.));
#3350=DIRECTION('',(-1.,0.,0.));
#3360=VECTOR('',#3350,1.);
#3370=LINE('',#3340,#3360);
#3380=EDGE_CURVE('',#3310,#2690,#3370,.T.);
#3390=ORIENTED_EDGE('',*,*,#3380,.F.);
#3400=EDGE_LOOP('',(#3390,#3330,#3250,#3240));
#3410=FACE_OUTER_BOUND('',#3400,.T.);
#3420=ADVANCED_FACE('',(#3410),#3230,.T.);
#3430=COLOUR_RGB('',0.501960813999176,0.52549022436142,0.501960813999176
);
#3440=FILL_AREA_STYLE_COLOUR('',#3430);
#3450=FILL_AREA_STYLE('',(#3440));
#3460=SURFACE_STYLE_FILL_AREA(#3450);
#3470=SURFACE_SIDE_STYLE('',(#3460));
#3480=SURFACE_STYLE_USAGE(.BOTH.,#3470);
#3490=PRESENTATION_STYLE_ASSIGNMENT((#3480));
#3500=CARTESIAN_POINT('',(139.33890173317,-44.0251147901442,0.));
#3510=DIRECTION('',(1.,0.,0.));
#3520=DIRECTION('',(0.,-1.,0.));
#3530=AXIS2_PLACEMENT_3D('',#3500,#3510,#3520);
#3540=PLANE('',#3530);
#3550=CARTESIAN_POINT('',(139.33890173317,0.,-1900.));
#3560=DIRECTION('',(0.,-1.,0.));
#3570=VECTOR('',#3560,1.);
#3580=LINE('',#3550,#3570);
#3590=CARTESIAN_POINT('',(139.33890173317,-44.0251147901442,-1900.));
#3600=VERTEX_POINT('',#3590);
#3610=EDGE_CURVE('',#3600,#3310,#3580,.T.);
#3620=ORIENTED_EDGE('',*,*,#3610,.F.);
#3630=ORIENTED_EDGE('',*,*,#3320,.T.);
#3640=ORIENTED_EDGE('',*,*,#860,.F.);
#3650=CARTESIAN_POINT('',(139.33890173317,-44.0251147901442,-200.));
#3660=DIRECTION('',(0.,0.,-1.));
#3670=VECTOR('',#3660,1.);
#3680=LINE('',#3650,#3670);
#3690=EDGE_CURVE('',#770,#3600,#3680,.T.);
#3700=ORIENTED_EDGE('',*,*,#3690,.F.);
#3710=EDGE_LOOP('',(#3700,#3640,#3630,#3620));
#3720=FACE_OUTER_BOUND('',#3710,.T.);
#3730=ADVANCED_FACE('',(#3720),#3540,.T.);
#3740=COLOUR_RGB('',0.501960813999176,0.52549022436142,0.501960813999176
);
#3750=FILL_AREA_STYLE_COLOUR('',#3740);
#3760=FILL_AREA_STYLE('',(#3750));
#3770=SURFACE_STYLE_FILL_AREA(#3760);
#3780=SURFACE_SIDE_STYLE('',(#3770));
#3790=SURFACE_STYLE_USAGE(.BOTH.,#3780);
#3800=PRESENTATION_STYLE_ASSIGNMENT((#3790));
#3810=CARTESIAN_POINT('',(136.138901733169,-44.0251147901442,0.));
#3820=DIRECTION('',(-0.,1.,0.));
#3830=DIRECTION('',(1.,0.,0.));
#3840=AXIS2_PLACEMENT_3D('',#3810,#3820,#3830);
#3850=PLANE('',#3840);
#3860=CARTESIAN_POINT('',(0.,-44.0251147901442,-1900.));
#3870=DIRECTION('',(-1.,0.,0.));
#3880=VECTOR('',#3870,1.);
#3890=LINE('',#3860,#3880);
#3900=CARTESIAN_POINT('',(134.33890173317,-44.0251147901442,-1900.));
#3910=VERTEX_POINT('',#3900);
#3920=EDGE_CURVE('',#3600,#3910,#3890,.T.);
#3930=ORIENTED_EDGE('',*,*,#3920,.T.);
#3940=ORIENTED_EDGE('',*,*,#3690,.T.);
#3950=ORIENTED_EDGE('',*,*,#780,.F.);
#3960=CARTESIAN_POINT('',(134.33890173317,-44.0251147901442,0.));
#3970=DIRECTION('',(0.,0.,-1.));
#3980=VECTOR('',#3970,1.);
#3990=LINE('',#3960,#3980);
#4000=EDGE_CURVE('',#690,#3910,#3990,.T.);
#4010=ORIENTED_EDGE('',*,*,#4000,.F.);
#4020=EDGE_LOOP('',(#4010,#3950,#3940,#3930));
#4030=FACE_OUTER_BOUND('',#4020,.T.);
#4040=ADVANCED_FACE('',(#4030),#3850,.T.);
#4050=COLOUR_RGB('',0.501960813999176,0.52549022436142,0.501960813999176
);
#4060=FILL_AREA_STYLE_COLOUR('',#4050);
#4070=FILL_AREA_STYLE('',(#4060));
#4080=SURFACE_STYLE_FILL_AREA(#4070);
#4090=SURFACE_SIDE_STYLE('',(#4080));
#4100=SURFACE_STYLE_USAGE(.BOTH.,#4090);
#4110=PRESENTATION_STYLE_ASSIGNMENT((#4100));
#4120=CARTESIAN_POINT('',(109.338901733169,-45.8251147901442,0.));
#4130=DIRECTION('',(1.,0.,0.));
#4140=DIRECTION('',(0.,-1.,0.));
#4150=AXIS2_PLACEMENT_3D('',#4120,#4130,#4140);
#4160=PLANE('',#4150);
#4170=ORIENTED_EDGE('',*,*,#2390,.T.);
#4180=ORIENTED_EDGE('',*,*,#540,.F.);
#4190=ORIENTED_EDGE('',*,*,#2990,.F.);
#4200=CARTESIAN_POINT('',(109.338901733169,0.,-1900.));
#4210=DIRECTION('',(0.,-1.,0.));
#4220=VECTOR('',#4210,1.);
#4230=LINE('',#4200,#4220);
#4240=EDGE_CURVE('',#2980,#2380,#4230,.T.);
#4250=ORIENTED_EDGE('',*,*,#4240,.F.);
#4260=EDGE_LOOP('',(#4250,#4190,#4180,#4170));
#4270=FACE_OUTER_BOUND('',#4260,.T.);
#4280=ADVANCED_FACE('',(#4270),#4160,.T.);
#4290=COLOUR_RGB('',0.501960813999176,0.52549022436142,0.501960813999176
);
#4300=FILL_AREA_STYLE_COLOUR('',#4290);
#4310=FILL_AREA_STYLE('',(#4300));
#4320=SURFACE_STYLE_FILL_AREA(#4310);
#4330=SURFACE_SIDE_STYLE('',(#4320));
#4340=SURFACE_STYLE_USAGE(.BOTH.,#4330);
#4350=PRESENTATION_STYLE_ASSIGNMENT((#4340));
#4360=CARTESIAN_POINT('',(134.33890173317,-49.7251147901443,0.));
#4370=DIRECTION('',(-1.,0.,0.));
#4380=DIRECTION('',(0.,1.,0.));
#4390=AXIS2_PLACEMENT_3D('',#4360,#4370,#4380);
#4400=PLANE('',#4390);
#4410=ORIENTED_EDGE('',*,*,#4000,.T.);
#4420=ORIENTED_EDGE('',*,*,#700,.F.);
#4430=ORIENTED_EDGE('',*,*,#2300,.F.);
#4440=CARTESIAN_POINT('',(134.33890173317,0.,-1900.));
#4450=DIRECTION('',(0.,1.,0.));
#4460=VECTOR('',#4450,1.);
#4470=LINE('',#4440,#4460);
#4480=EDGE_CURVE('',#2290,#3910,#4470,.T.);
#4490=ORIENTED_EDGE('',*,*,#4480,.F.);
#4500=EDGE_LOOP('',(#4490,#4430,#4420,#4410));
#4510=FACE_OUTER_BOUND('',#4500,.T.);
#4520=ADVANCED_FACE('',(#4510),#4400,.T.);
#4530=COLOUR_RGB('',0.501960813999176,0.52549022436142,0.501960813999176
);
#4540=FILL_AREA_STYLE_COLOUR('',#4530);
#4550=FILL_AREA_STYLE('',(#4540));
#4560=SURFACE_STYLE_FILL_AREA(#4550);
#4570=SURFACE_SIDE_STYLE('',(#4560));
#4580=SURFACE_STYLE_USAGE(.BOTH.,#4570);
#4590=PRESENTATION_STYLE_ASSIGNMENT((#4580));
#4600=CARTESIAN_POINT('',(107.53890173317,-45.0251147901442,0.));
#4610=DIRECTION('',(-0.,-1.,-0.));
#4620=DIRECTION('',(-1.,0.,0.));
#4630=AXIS2_PLACEMENT_3D('',#4600,#4610,#4620);
#4640=PLANE('',#4630);
#4650=CARTESIAN_POINT('',(0.,-45.0251147901442,-1900.));
#4660=DIRECTION('',(-1.,0.,0.));
#4670=VECTOR('',#4660,1.);
#4680=LINE('',#4650,#4670);
#4690=EDGE_CURVE('',#1240,#1620,#4680,.T.);
#4700=ORIENTED_EDGE('',*,*,#4690,.F.);
#4710=ORIENTED_EDGE('',*,*,#1760,.T.);
#4720=ORIENTED_EDGE('',*,*,#300,.F.);
#4730=ORIENTED_EDGE('',*,*,#1310,.F.);
#4740=EDGE_LOOP('',(#4730,#4720,#4710,#4700));
#4750=FACE_OUTER_BOUND('',#4740,.T.);
#4760=ADVANCED_FACE('',(#4750),#4640,.T.);
#4770=COLOUR_RGB('',0.501960813999176,0.52549022436142,0.501960813999176
);
#4780=FILL_AREA_STYLE_COLOUR('',#4770);
#4790=FILL_AREA_STYLE('',(#4780));
#4800=SURFACE_STYLE_FILL_AREA(#4790);
#4810=SURFACE_SIDE_STYLE('',(#4800));
#4820=SURFACE_STYLE_USAGE(.BOTH.,#4810);
#4830=PRESENTATION_STYLE_ASSIGNMENT((#4820));
#4840=CARTESIAN_POINT('',(155.73890173317,-6.21756259312821,-1900.));
#4850=DIRECTION('',(0.,0.,-1.));
#4860=DIRECTION('',(1.,0.,0.));
#4870=AXIS2_PLACEMENT_3D('',#4840,#4850,#4860);
#4880=PLANE('',#4870);
#4890=ORIENTED_EDGE('',*,*,#2760,.T.);
#4900=ORIENTED_EDGE('',*,*,#3380,.T.);
#4910=ORIENTED_EDGE('',*,*,#3610,.T.);
#4920=ORIENTED_EDGE('',*,*,#3920,.F.);
#4930=ORIENTED_EDGE('',*,*,#4480,.T.);
#4940=ORIENTED_EDGE('',*,*,#2450,.T.);
#4950=ORIENTED_EDGE('',*,*,#4240,.T.);
#4960=ORIENTED_EDGE('',*,*,#3070,.T.);
#4970=ORIENTED_EDGE('',*,*,#1630,.F.);
#4980=ORIENTED_EDGE('',*,*,#4690,.T.);
#4990=ORIENTED_EDGE('',*,*,#1250,.T.);
#5000=ORIENTED_EDGE('',*,*,#1990,.T.);
#5010=EDGE_LOOP('',(#5000,#4990,#4980,#4970,#4960,#4950,#4940,#4930,
#4920,#4910,#4900,#4890));
#5020=FACE_OUTER_BOUND('',#5010,.T.);
#5030=ADVANCED_FACE('',(#5020),#4880,.T.);
#5040=COLOUR_RGB('',0.501960813999176,0.52549022436142,0.501960813999176
);
#5050=FILL_AREA_STYLE_COLOUR('',#5040);
#5060=FILL_AREA_STYLE('',(#5050));
#5070=SURFACE_STYLE_FILL_AREA(#5060);
#5080=SURFACE_SIDE_STYLE('',(#5070));
#5090=SURFACE_STYLE_USAGE(.BOTH.,#5080);
#5100=PRESENTATION_STYLE_ASSIGNMENT((#5090));
#5110=CLOSED_SHELL('',(#1420,#1800,#2110,#2490,#2800,#3110,#3420,#3730,
#4040,#4280,#4520,#4760,#1040,#5030));
#5120=MANIFOLD_SOLID_BREP('',#5110);
#5130=CARTESIAN_POINT('',(0.,0.,0.));
#5140=DIRECTION('',(0.,0.,1.));
#5150=DIRECTION('',(1.,0.,0.));
#5160=AXIS2_PLACEMENT_3D('',#5130,#5140,#5150);
#5170=APPLICATION_CONTEXT(' ');
#5180=APPLICATION_PROTOCOL_DEFINITION(' ','automotive_design',1998,#5170
);
#5190=PRODUCT_CONTEXT('',#5170,'mechanical');
#5200=PRODUCT_DEFINITION_CONTEXT('part definition',#5170,'design');
#5210=PRODUCT('0801681_NS_35_7.5_UNPERF_2000MM-select',
'0801681_NS_35_7.5_UNPERF_2000MM-select','',(#5190));
#5220=PRODUCT_RELATED_PRODUCT_CATEGORY('part',' ',(#5210));
#5230=PRODUCT_DEFINITION_FORMATION_WITH_SPECIFIED_SOURCE('','',#5210,
.BOUGHT.);
#5240=PRODUCT_DEFINITION('',' ',#5230,#5200);
#5250=PRODUCT_DEFINITION_SHAPE('','',#5240);
#5260=DIMENSIONAL_EXPONENTS(1.,0.,0.,0.,0.,0.,0.);
#5270=DIMENSIONAL_EXPONENTS(0.,0.,0.,0.,0.,0.,0.);
#5280=DIMENSIONAL_EXPONENTS(0.,0.,0.,0.,0.,0.,0.);
#5290=(LENGTH_UNIT() NAMED_UNIT(*) SI_UNIT(.MILLI.,.METRE.));
#5300=(NAMED_UNIT(*) PLANE_ANGLE_UNIT() SI_UNIT($,.RADIAN.));
#5310=(NAMED_UNIT(*) SI_UNIT($,.STERADIAN.) SOLID_ANGLE_UNIT());
#5320=(GEOMETRIC_REPRESENTATION_CONTEXT(3) 
GLOBAL_UNCERTAINTY_ASSIGNED_CONTEXT((#5330)) 
GLOBAL_UNIT_ASSIGNED_CONTEXT((#5290,#5300,#5310)) REPRESENTATION_CONTEXT
('',''));
#5330=UNCERTAINTY_MEASURE_WITH_UNIT(LENGTH_MEASURE(1.E-6),#5290,
'distance_accuracy_value','maximum gap value');
#5340=ADVANCED_BREP_SHAPE_REPRESENTATION('',(#5160,#5120),#5320);
#5350=SHAPE_DEFINITION_REPRESENTATION(#5250,#5340);
#5360=COLOUR_RGB('',0.501960813999176,0.52549022436142,0.501960813999176
);
#5370=FILL_AREA_STYLE_COLOUR('',#5360);
#5380=FILL_AREA_STYLE('',(#5370));
#5390=SURFACE_STYLE_FILL_AREA(#5380);
#5400=SURFACE_SIDE_STYLE('',(#5390));
#5410=SURFACE_STYLE_USAGE(.BOTH.,#5400);
#5420=PRESENTATION_STYLE_ASSIGNMENT((#5410));
#5430=STYLED_ITEM('',(#5420),#5120);
#5440=OVER_RIDING_STYLED_ITEM('',(#1110),#1040,#5430);
#5450=OVER_RIDING_STYLED_ITEM('',(#1490),#1420,#5430);
#5460=OVER_RIDING_STYLED_ITEM('',(#1870),#1800,#5430);
#5470=OVER_RIDING_STYLED_ITEM('',(#2180),#2110,#5430);
#5480=OVER_RIDING_STYLED_ITEM('',(#2560),#2490,#5430);
#5490=OVER_RIDING_STYLED_ITEM('',(#2870),#2800,#5430);
#5500=OVER_RIDING_STYLED_ITEM('',(#3180),#3110,#5430);
#5510=OVER_RIDING_STYLED_ITEM('',(#3490),#3420,#5430);
#5520=OVER_RIDING_STYLED_ITEM('',(#3800),#3730,#5430);
#5530=OVER_RIDING_STYLED_ITEM('',(#4110),#4040,#5430);
#5540=OVER_RIDING_STYLED_ITEM('',(#4350),#4280,#5430);
#5550=OVER_RIDING_STYLED_ITEM('',(#4590),#4520,#5430);
#5560=OVER_RIDING_STYLED_ITEM('',(#4830),#4760,#5430);
#5570=OVER_RIDING_STYLED_ITEM('',(#5100),#5030,#5430);
#5580=DRAUGHTING_MODEL('',(#5430,#5440,#5450,#5460,#5470,#5480,#5490,
#5500,#5510,#5520,#5530,#5540,#5550,#5560,#5570),#5320);
#5590=CARTESIAN_POINT('',(100.,121.83890173317,51.5251147901443));
#5600=DIRECTION('',(-1.,0.,0.));
#5610=DIRECTION('',(0.,-1.,0.));
#5620=AXIS2_PLACEMENT_3D('',#5590,#5600,#5610);
#5630=ITEM_DEFINED_TRANSFORMATION(
'0801681_NS_35_7.5_UNPERF_2000MM-select','',#5160,#5620);
#5640=APPLICATION_CONTEXT(' ');
#5650=APPLICATION_PROTOCOL_DEFINITION(' ','automotive_design',1998,#5640
);
#5660=PRODUCT_CONTEXT('',#5640,'mechanical');
#5670=PRODUCT_DEFINITION_CONTEXT('part definition',#5640,'design');
#5680=PRODUCT('0801681_NS_35_7.5_UNPERF_2000MM-select',
'0801681_NS_35_7.5_UNPERF_2000MM-select','',(#5660));
#5690=PRODUCT_RELATED_PRODUCT_CATEGORY('part',' ',(#5680));
#5700=PRODUCT_DEFINITION_FORMATION_WITH_SPECIFIED_SOURCE('','',#5680,
.BOUGHT.);
#5710=PRODUCT_DEFINITION('',' ',#5700,#5670);
#5720=PRODUCT_DEFINITION_SHAPE('','',#5710);
#5730=DIMENSIONAL_EXPONENTS(1.,0.,0.,0.,0.,0.,0.);
#5740=DIMENSIONAL_EXPONENTS(0.,0.,0.,0.,0.,0.,0.);
#5750=DIMENSIONAL_EXPONENTS(0.,0.,0.,0.,0.,0.,0.);
#5760=(LENGTH_UNIT() NAMED_UNIT(*) SI_UNIT(.MILLI.,.METRE.));
#5770=(NAMED_UNIT(*) PLANE_ANGLE_UNIT() SI_UNIT($,.RADIAN.));
#5780=(NAMED_UNIT(*) SI_UNIT($,.STERADIAN.) SOLID_ANGLE_UNIT());
#5790=(GEOMETRIC_REPRESENTATION_CONTEXT(3) 
GLOBAL_UNCERTAINTY_ASSIGNED_CONTEXT((#5800)) 
GLOBAL_UNIT_ASSIGNED_CONTEXT((#5760,#5770,#5780)) REPRESENTATION_CONTEXT
('',''));
#5800=UNCERTAINTY_MEASURE_WITH_UNIT(LENGTH_MEASURE(1.E-6),#5760,
'distance_accuracy_value','maximum gap value');
#5810=SHAPE_REPRESENTATION('',(#5160,#5620),#5790);
#5820=SHAPE_DEFINITION_REPRESENTATION(#5720,#5810);
#5830=(REPRESENTATION_RELATIONSHIP('','',#5340,#5810) 
REPRESENTATION_RELATIONSHIP_WITH_TRANSFORMATION(#5630) 
SHAPE_REPRESENTATION_RELATIONSHIP());
#5840=NEXT_ASSEMBLY_USAGE_OCCURRENCE('1','',
'0801681_NS_35_7.5_UNPERF_2000MM-select',#5710,#5240,'');
#5850=PRODUCT_DEFINITION_SHAPE('','',#5840);
#5860=CONTEXT_DEPENDENT_SHAPE_REPRESENTATION(#5830,#5850);
ENDSEC;
END-ISO-10303-21;
