ISO-10303-21;
HEADER;
FILE_DESCRIPTION(('SolidDesigner STEP Export'),'2;1');
FILE_NAME('2700119_PSD_S_OE_LED_GN-select.stp','2014-09-25T14:51:42',(''
),(''),
'Creo Elements/Direct Modeling STEP processor for AP214 (Solid Model)',
'Creo Elements/Direct Modeling 18.1  06-May-2012 (C) Parametric Technolo
gy GmbH','');
FILE_SCHEMA(('AUTOMOTIVE_DESIGN { 1 0 10303 214 1 1 1 1 }'));
ENDSEC;
DATA;
#10=CARTESIAN_POINT('',(0.,33.5,0.));
#20=DIRECTION('',(0.,-1.,0.));
#30=DIRECTION('',(1.,0.,0.));
#40=AXIS2_PLACEMENT_3D('',#10,#20,#30);
#50=CYLINDRICAL_SURFACE('',#40,33.1);
#60=CARTESIAN_POINT('',(33.1,33.5,0.));
#70=DIRECTION('',(0.,-1.,0.));
#80=VECTOR('',#70,1.);
#90=LINE('',#60,#80);
#100=CARTESIAN_POINT('',(33.1,56.,0.));
#110=VERTEX_POINT('',#100);
#120=CARTESIAN_POINT('',(33.1,12.,0.));
#130=VERTEX_POINT('',#120);
#140=EDGE_CURVE('',#110,#130,#90,.T.);
#150=ORIENTED_EDGE('',*,*,#140,.T.);
#160=CARTESIAN_POINT('',(0.,56.,0.));
#170=DIRECTION('',(0.,-1.,0.));
#180=DIRECTION('',(1.,0.,0.));
#190=AXIS2_PLACEMENT_3D('',#160,#170,#180);
#200=CIRCLE('',#190,33.1);
#210=CARTESIAN_POINT('',(-32.8415785356483,56.,-4.12804061109468));
#220=VERTEX_POINT('',#210);
#230=EDGE_CURVE('',#220,#110,#200,.T.);
#240=ORIENTED_EDGE('',*,*,#230,.T.);
#250=CARTESIAN_POINT('',(-33.1,56.,4.05358090517774E-15));
#260=VERTEX_POINT('',#250);
#270=EDGE_CURVE('',#260,#220,#200,.T.);
#280=ORIENTED_EDGE('',*,*,#270,.T.);
#290=CARTESIAN_POINT('',(-33.1,33.5,4.05358090517774E-15));
#300=DIRECTION('',(0.,-1.,0.));
#310=VECTOR('',#300,1.);
#320=LINE('',#290,#310);
#330=CARTESIAN_POINT('',(-33.1,12.,4.05358090517774E-15));
#340=VERTEX_POINT('',#330);
#350=EDGE_CURVE('',#260,#340,#320,.T.);
#360=ORIENTED_EDGE('',*,*,#350,.F.);
#370=CARTESIAN_POINT('',(0.,12.,0.));
#380=DIRECTION('',(0.,-1.,0.));
#390=DIRECTION('',(1.,0.,0.));
#400=AXIS2_PLACEMENT_3D('',#370,#380,#390);
#410=CIRCLE('',#400,33.1);
#420=EDGE_CURVE('',#340,#130,#410,.T.);
#430=ORIENTED_EDGE('',*,*,#420,.F.);
#440=EDGE_LOOP('',(#430,#360,#280,#240,#150));
#450=FACE_OUTER_BOUND('',#440,.T.);
#460=ADVANCED_FACE('',(#450),#50,.T.);
#470=COLOUR_RGB('',0.501960813999176,1.,0.501960813999176);
#480=FILL_AREA_STYLE_COLOUR('',#470);
#490=FILL_AREA_STYLE('',(#480));
#500=SURFACE_STYLE_FILL_AREA(#490);
#510=SURFACE_SIDE_STYLE('',(#500));
#520=SURFACE_STYLE_USAGE(.BOTH.,#510);
#530=PRESENTATION_STYLE_ASSIGNMENT((#520));
#540=CARTESIAN_POINT('',(-34.0630929607847,56.,-4.21884749357559E-15));
#550=DIRECTION('',(0.,-1.,0.));
#560=DIRECTION('',(1.,0.,0.));
#570=AXIS2_PLACEMENT_3D('',#540,#550,#560);
#580=PLANE('',#570);
#590=ORIENTED_EDGE('',*,*,#230,.F.);
#600=EDGE_CURVE('',#110,#260,#200,.T.);
#610=ORIENTED_EDGE('',*,*,#600,.F.);
#620=ORIENTED_EDGE('',*,*,#270,.F.);
#630=EDGE_LOOP('',(#620,#610,#590));
#640=FACE_BOUND('',#630,.T.);
#650=CARTESIAN_POINT('',(0.,56.,0.));
#660=DIRECTION('',(0.,-1.,0.));
#670=DIRECTION('',(-1.,0.,0.));
#680=AXIS2_PLACEMENT_3D('',#650,#660,#670);
#690=CIRCLE('',#680,35.0000000000001);
#700=CARTESIAN_POINT('',(-35.0000000000001,56.,0.));
#710=VERTEX_POINT('',#700);
#720=CARTESIAN_POINT('',(35.0000000000001,56.,-4.28626379701575E-15));
#730=VERTEX_POINT('',#720);
#740=EDGE_CURVE('',#710,#730,#690,.T.);
#750=ORIENTED_EDGE('',*,*,#740,.T.);
#760=EDGE_CURVE('',#730,#710,#690,.T.);
#770=ORIENTED_EDGE('',*,*,#760,.T.);
#780=EDGE_LOOP('',(#770,#750));
#790=FACE_OUTER_BOUND('',#780,.T.);
#800=ADVANCED_FACE('',(#640,#790),#580,.T.);
#810=COLOUR_RGB('',0.501960813999176,1.,0.501960813999176);
#820=FILL_AREA_STYLE_COLOUR('',#810);
#830=FILL_AREA_STYLE('',(#820));
#840=SURFACE_STYLE_FILL_AREA(#830);
#850=SURFACE_SIDE_STYLE('',(#840));
#860=SURFACE_STYLE_USAGE(.BOTH.,#850);
#870=PRESENTATION_STYLE_ASSIGNMENT((#860));
#880=CARTESIAN_POINT('',(34.5,0.,0.));
#890=DIRECTION('',(0.,-1.,0.));
#900=DIRECTION('',(0.,0.,-1.));
#910=AXIS2_PLACEMENT_3D('',#880,#890,#900);
#920=PLANE('',#910);
#930=CARTESIAN_POINT('',(0.,0.,0.));
#940=DIRECTION('',(0.,-1.,0.));
#950=DIRECTION('',(1.,0.,0.));
#960=AXIS2_PLACEMENT_3D('',#930,#940,#950);
#970=CIRCLE('',#960,35.);
#980=CARTESIAN_POINT('',(35.,0.,0.));
#990=VERTEX_POINT('',#980);
#1000=CARTESIAN_POINT('',(-35.,0.,4.28626379701574E-15));
#1010=VERTEX_POINT('',#1000);
#1020=EDGE_CURVE('',#990,#1010,#970,.T.);
#1030=ORIENTED_EDGE('',*,*,#1020,.T.);
#1040=EDGE_CURVE('',#1010,#990,#970,.T.);
#1050=ORIENTED_EDGE('',*,*,#1040,.T.);
#1060=EDGE_LOOP('',(#1050,#1030));
#1070=FACE_OUTER_BOUND('',#1060,.T.);
#1080=ADVANCED_FACE('',(#1070),#920,.T.);
#1090=COLOUR_RGB('',0.501960813999176,1.,0.501960813999176);
#1100=FILL_AREA_STYLE_COLOUR('',#1090);
#1110=FILL_AREA_STYLE('',(#1100));
#1120=SURFACE_STYLE_FILL_AREA(#1110);
#1130=SURFACE_SIDE_STYLE('',(#1120));
#1140=SURFACE_STYLE_USAGE(.BOTH.,#1130);
#1150=PRESENTATION_STYLE_ASSIGNMENT((#1140));
#1160=CARTESIAN_POINT('',(0.,0.,0.));
#1170=DIRECTION('',(0.,-1.,0.));
#1180=DIRECTION('',(1.,0.,0.));
#1190=AXIS2_PLACEMENT_3D('',#1160,#1170,#1180);
#1200=CYLINDRICAL_SURFACE('',#1190,35.);
#1210=CARTESIAN_POINT('',(35.,0.,0.));
#1220=DIRECTION('',(0.,-1.,0.));
#1230=VECTOR('',#1220,1.);
#1240=LINE('',#1210,#1230);
#1250=CARTESIAN_POINT('',(35.,12.,0.));
#1260=VERTEX_POINT('',#1250);
#1270=EDGE_CURVE('',#1260,#990,#1240,.T.);
#1280=ORIENTED_EDGE('',*,*,#1270,.T.);
#1290=CARTESIAN_POINT('',(0.,12.,0.));
#1300=DIRECTION('',(0.,-1.,0.));
#1310=DIRECTION('',(1.,0.,0.));
#1320=AXIS2_PLACEMENT_3D('',#1290,#1300,#1310);
#1330=CIRCLE('',#1320,35.);
#1340=CARTESIAN_POINT('',(-35.,12.,4.28626379701574E-15));
#1350=VERTEX_POINT('',#1340);
#1360=EDGE_CURVE('',#1350,#1260,#1330,.T.);
#1370=ORIENTED_EDGE('',*,*,#1360,.T.);
#1380=CARTESIAN_POINT('',(-35.,0.,4.28626379701574E-15));
#1390=DIRECTION('',(0.,-1.,0.));
#1400=VECTOR('',#1390,1.);
#1410=LINE('',#1380,#1400);
#1420=EDGE_CURVE('',#1350,#1010,#1410,.T.);
#1430=ORIENTED_EDGE('',*,*,#1420,.F.);
#1440=ORIENTED_EDGE('',*,*,#1040,.F.);
#1450=EDGE_LOOP('',(#1440,#1430,#1370,#1280));
#1460=FACE_OUTER_BOUND('',#1450,.T.);
#1470=ADVANCED_FACE('',(#1460),#1200,.T.);
#1480=COLOUR_RGB('',0.501960813999176,1.,0.501960813999176);
#1490=FILL_AREA_STYLE_COLOUR('',#1480);
#1500=FILL_AREA_STYLE('',(#1490));
#1510=SURFACE_STYLE_FILL_AREA(#1500);
#1520=SURFACE_SIDE_STYLE('',(#1510));
#1530=SURFACE_STYLE_USAGE(.BOTH.,#1520);
#1540=PRESENTATION_STYLE_ASSIGNMENT((#1530));
#1550=CARTESIAN_POINT('',(0.,1354.40761609886,0.));
#1560=DIRECTION('',(0.,-1.,0.));
#1570=DIRECTION('',(-1.,0.,0.));
#1580=AXIS2_PLACEMENT_3D('',#1550,#1560,#1570);
#1590=CONICAL_SURFACE('',#1580,1.,0.0261799387799152);
#1600=CARTESIAN_POINT('',(1.,1354.40761609886,-1.22464679914735E-16));
#1610=DIRECTION('',(0.0261769483078734,-0.999657324975557,
-3.20575159566829E-18));
#1620=VECTOR('',#1610,38.2015500141101);
#1630=LINE('',#1600,#1620);
#1640=CARTESIAN_POINT('',(34.9607211176464,57.4999999999993,
-4.28145352126089E-15));
#1650=VERTEX_POINT('',#1640);
#1660=EDGE_CURVE('',#1650,#730,#1630,.T.);
#1670=ORIENTED_EDGE('',*,*,#1660,.F.);
#1680=ORIENTED_EDGE('',*,*,#760,.F.);
#1690=CARTESIAN_POINT('',(-1.,1354.40761609886,0.));
#1700=DIRECTION('',(-0.0261769483078734,-0.999657324975557,0.));
#1710=VECTOR('',#1700,38.2015500141101);
#1720=LINE('',#1690,#1710);
#1730=CARTESIAN_POINT('',(-34.9607211176464,57.4999999999993,0.));
#1740=VERTEX_POINT('',#1730);
#1750=EDGE_CURVE('',#1740,#710,#1720,.T.);
#1760=ORIENTED_EDGE('',*,*,#1750,.T.);
#1770=CARTESIAN_POINT('',(0.,57.5,0.));
#1780=DIRECTION('',(0.,-1.,0.));
#1790=DIRECTION('',(-1.,0.,0.));
#1800=AXIS2_PLACEMENT_3D('',#1770,#1780,#1790);
#1810=CIRCLE('',#1800,34.9607211176464);
#1820=EDGE_CURVE('',#1650,#1740,#1810,.T.);
#1830=ORIENTED_EDGE('',*,*,#1820,.T.);
#1840=EDGE_LOOP('',(#1830,#1760,#1680,#1670));
#1850=FACE_OUTER_BOUND('',#1840,.T.);
#1860=ADVANCED_FACE('',(#1850),#1590,.T.);
#1870=COLOUR_RGB('',0.501960813999176,1.,0.501960813999176);
#1880=FILL_AREA_STYLE_COLOUR('',#1870);
#1890=FILL_AREA_STYLE('',(#1880));
#1900=SURFACE_STYLE_FILL_AREA(#1890);
#1910=SURFACE_SIDE_STYLE('',(#1900));
#1920=SURFACE_STYLE_USAGE(.BOTH.,#1910);
#1930=PRESENTATION_STYLE_ASSIGNMENT((#1920));
#1940=CARTESIAN_POINT('',(33.9,12.,0.));
#1950=DIRECTION('',(0.,1.,0.));
#1960=DIRECTION('',(0.,0.,1.));
#1970=AXIS2_PLACEMENT_3D('',#1940,#1950,#1960);
#1980=PLANE('',#1970);
#1990=EDGE_CURVE('',#130,#340,#410,.T.);
#2000=ORIENTED_EDGE('',*,*,#1990,.T.);
#2010=ORIENTED_EDGE('',*,*,#420,.T.);
#2020=EDGE_LOOP('',(#2010,#2000));
#2030=FACE_BOUND('',#2020,.T.);
#2040=EDGE_CURVE('',#1260,#1350,#1330,.T.);
#2050=ORIENTED_EDGE('',*,*,#2040,.F.);
#2060=ORIENTED_EDGE('',*,*,#1360,.F.);
#2070=EDGE_LOOP('',(#2060,#2050));
#2080=FACE_OUTER_BOUND('',#2070,.T.);
#2090=ADVANCED_FACE('',(#2030,#2080),#1980,.T.);
#2100=COLOUR_RGB('',0.501960813999176,1.,0.501960813999176);
#2110=FILL_AREA_STYLE_COLOUR('',#2100);
#2120=FILL_AREA_STYLE('',(#2110));
#2130=SURFACE_STYLE_FILL_AREA(#2120);
#2140=SURFACE_SIDE_STYLE('',(#2130));
#2150=SURFACE_STYLE_USAGE(.BOTH.,#2140);
#2160=PRESENTATION_STYLE_ASSIGNMENT((#2150));
#2170=CARTESIAN_POINT('',(47.,65.5,-42.0602231058832));
#2180=DIRECTION('',(0.,-1.,0.));
#2190=DIRECTION('',(-1.,-0.,0.));
#2200=AXIS2_PLACEMENT_3D('',#2170,#2180,#2190);
#2210=PLANE('',#2200);
#2220=CARTESIAN_POINT('',(0.,65.5,0.));
#2230=DIRECTION('',(0.,1.,0.));
#2240=DIRECTION('',(1.,0.,0.));
#2250=AXIS2_PLACEMENT_3D('',#2220,#2230,#2240);
#2260=CIRCLE('',#2250,32.);
#2270=CARTESIAN_POINT('',(32.,65.5,0.));
#2280=VERTEX_POINT('',#2270);
#2290=CARTESIAN_POINT('',(-32.,65.5,-3.91886975727153E-15));
#2300=VERTEX_POINT('',#2290);
#2310=EDGE_CURVE('',#2280,#2300,#2260,.T.);
#2320=ORIENTED_EDGE('',*,*,#2310,.T.);
#2330=EDGE_CURVE('',#2300,#2280,#2260,.T.);
#2340=ORIENTED_EDGE('',*,*,#2330,.T.);
#2350=EDGE_LOOP('',(#2340,#2320));
#2360=FACE_OUTER_BOUND('',#2350,.T.);
#2370=ADVANCED_FACE('',(#2360),#2210,.F.);
#2380=COLOUR_RGB('',0.501960813999176,1.,0.501960813999176);
#2390=FILL_AREA_STYLE_COLOUR('',#2380);
#2400=FILL_AREA_STYLE('',(#2390));
#2410=SURFACE_STYLE_FILL_AREA(#2400);
#2420=SURFACE_SIDE_STYLE('',(#2410));
#2430=SURFACE_STYLE_USAGE(.BOTH.,#2420);
#2440=PRESENTATION_STYLE_ASSIGNMENT((#2430));
#2450=CARTESIAN_POINT('',(0.,57.5,-7.105427357601E-15));
#2460=DIRECTION('',(-0.,1.,0.));
#2470=DIRECTION('',(1.,0.,0.));
#2480=AXIS2_PLACEMENT_3D('',#2450,#2460,#2470);
#2490=PLANE('',#2480);
#2500=CARTESIAN_POINT('',(0.,57.5,0.));
#2510=DIRECTION('',(0.,1.,0.));
#2520=DIRECTION('',(1.,0.,0.));
#2530=AXIS2_PLACEMENT_3D('',#2500,#2510,#2520);
#2540=CIRCLE('',#2530,32.);
#2550=CARTESIAN_POINT('',(32.,57.5,0.));
#2560=VERTEX_POINT('',#2550);
#2570=CARTESIAN_POINT('',(-32.,57.5,-3.91886975727153E-15));
#2580=VERTEX_POINT('',#2570);
#2590=EDGE_CURVE('',#2560,#2580,#2540,.T.);
#2600=ORIENTED_EDGE('',*,*,#2590,.F.);
#2610=EDGE_CURVE('',#2580,#2560,#2540,.T.);
#2620=ORIENTED_EDGE('',*,*,#2610,.F.);
#2630=EDGE_LOOP('',(#2620,#2600));
#2640=FACE_BOUND('',#2630,.T.);
#2650=EDGE_CURVE('',#1740,#1650,#1810,.T.);
#2660=ORIENTED_EDGE('',*,*,#2650,.F.);
#2670=ORIENTED_EDGE('',*,*,#1820,.F.);
#2680=EDGE_LOOP('',(#2670,#2660));
#2690=FACE_OUTER_BOUND('',#2680,.T.);
#2700=ADVANCED_FACE('',(#2640,#2690),#2490,.T.);
#2710=COLOUR_RGB('',0.501960813999176,1.,0.501960813999176);
#2720=FILL_AREA_STYLE_COLOUR('',#2710);
#2730=FILL_AREA_STYLE('',(#2720));
#2740=SURFACE_STYLE_FILL_AREA(#2730);
#2750=SURFACE_SIDE_STYLE('',(#2740));
#2760=SURFACE_STYLE_USAGE(.BOTH.,#2750);
#2770=PRESENTATION_STYLE_ASSIGNMENT((#2760));
#2780=CARTESIAN_POINT('',(0.,65.5,0.));
#2790=DIRECTION('',(0.,1.,0.));
#2800=DIRECTION('',(1.,0.,0.));
#2810=AXIS2_PLACEMENT_3D('',#2780,#2790,#2800);
#2820=CYLINDRICAL_SURFACE('',#2810,32.);
#2830=CARTESIAN_POINT('',(-32.,65.5,-3.91886975727153E-15));
#2840=DIRECTION('',(0.,1.,0.));
#2850=VECTOR('',#2840,1.);
#2860=LINE('',#2830,#2850);
#2870=EDGE_CURVE('',#2580,#2300,#2860,.T.);
#2880=ORIENTED_EDGE('',*,*,#2870,.F.);
#2890=ORIENTED_EDGE('',*,*,#2330,.F.);
#2900=CARTESIAN_POINT('',(32.,65.5,0.));
#2910=DIRECTION('',(0.,1.,0.));
#2920=VECTOR('',#2910,1.);
#2930=LINE('',#2900,#2920);
#2940=EDGE_CURVE('',#2560,#2280,#2930,.T.);
#2950=ORIENTED_EDGE('',*,*,#2940,.T.);
#2960=ORIENTED_EDGE('',*,*,#2610,.T.);
#2970=EDGE_LOOP('',(#2960,#2950,#2890,#2880));
#2980=FACE_OUTER_BOUND('',#2970,.T.);
#2990=ADVANCED_FACE('',(#2980),#2820,.T.);
#3000=COLOUR_RGB('',0.501960813999176,1.,0.501960813999176);
#3010=FILL_AREA_STYLE_COLOUR('',#3000);
#3020=FILL_AREA_STYLE('',(#3010));
#3030=SURFACE_STYLE_FILL_AREA(#3020);
#3040=SURFACE_SIDE_STYLE('',(#3030));
#3050=SURFACE_STYLE_USAGE(.BOTH.,#3040);
#3060=PRESENTATION_STYLE_ASSIGNMENT((#3050));
#3070=CARTESIAN_POINT('',(0.,1354.40761609886,0.));
#3080=DIRECTION('',(0.,-1.,0.));
#3090=DIRECTION('',(-1.,0.,0.));
#3100=AXIS2_PLACEMENT_3D('',#3070,#3080,#3090);
#3110=CONICAL_SURFACE('',#3100,1.,0.0261799387799152);
#3120=ORIENTED_EDGE('',*,*,#740,.F.);
#3130=ORIENTED_EDGE('',*,*,#1660,.T.);
#3140=ORIENTED_EDGE('',*,*,#2650,.T.);
#3150=ORIENTED_EDGE('',*,*,#1750,.F.);
#3160=EDGE_LOOP('',(#3150,#3140,#3130,#3120));
#3170=FACE_OUTER_BOUND('',#3160,.T.);
#3180=ADVANCED_FACE('',(#3170),#3110,.T.);
#3190=COLOUR_RGB('',0.501960813999176,1.,0.501960813999176);
#3200=FILL_AREA_STYLE_COLOUR('',#3190);
#3210=FILL_AREA_STYLE('',(#3200));
#3220=SURFACE_STYLE_FILL_AREA(#3210);
#3230=SURFACE_SIDE_STYLE('',(#3220));
#3240=SURFACE_STYLE_USAGE(.BOTH.,#3230);
#3250=PRESENTATION_STYLE_ASSIGNMENT((#3240));
#3260=CARTESIAN_POINT('',(0.,65.5,0.));
#3270=DIRECTION('',(0.,1.,0.));
#3280=DIRECTION('',(1.,0.,0.));
#3290=AXIS2_PLACEMENT_3D('',#3260,#3270,#3280);
#3300=CYLINDRICAL_SURFACE('',#3290,32.);
#3310=ORIENTED_EDGE('',*,*,#2310,.F.);
#3320=ORIENTED_EDGE('',*,*,#2870,.T.);
#3330=ORIENTED_EDGE('',*,*,#2590,.T.);
#3340=ORIENTED_EDGE('',*,*,#2940,.F.);
#3350=EDGE_LOOP('',(#3340,#3330,#3320,#3310));
#3360=FACE_OUTER_BOUND('',#3350,.T.);
#3370=ADVANCED_FACE('',(#3360),#3300,.T.);
#3380=COLOUR_RGB('',0.501960813999176,1.,0.501960813999176);
#3390=FILL_AREA_STYLE_COLOUR('',#3380);
#3400=FILL_AREA_STYLE('',(#3390));
#3410=SURFACE_STYLE_FILL_AREA(#3400);
#3420=SURFACE_SIDE_STYLE('',(#3410));
#3430=SURFACE_STYLE_USAGE(.BOTH.,#3420);
#3440=PRESENTATION_STYLE_ASSIGNMENT((#3430));
#3450=CARTESIAN_POINT('',(0.,33.5,0.));
#3460=DIRECTION('',(0.,-1.,0.));
#3470=DIRECTION('',(1.,0.,0.));
#3480=AXIS2_PLACEMENT_3D('',#3450,#3460,#3470);
#3490=CYLINDRICAL_SURFACE('',#3480,33.1);
#3500=ORIENTED_EDGE('',*,*,#1990,.F.);
#3510=ORIENTED_EDGE('',*,*,#350,.T.);
#3520=ORIENTED_EDGE('',*,*,#600,.T.);
#3530=ORIENTED_EDGE('',*,*,#140,.F.);
#3540=EDGE_LOOP('',(#3530,#3520,#3510,#3500));
#3550=FACE_OUTER_BOUND('',#3540,.T.);
#3560=ADVANCED_FACE('',(#3550),#3490,.T.);
#3570=COLOUR_RGB('',0.501960813999176,1.,0.501960813999176);
#3580=FILL_AREA_STYLE_COLOUR('',#3570);
#3590=FILL_AREA_STYLE('',(#3580));
#3600=SURFACE_STYLE_FILL_AREA(#3590);
#3610=SURFACE_SIDE_STYLE('',(#3600));
#3620=SURFACE_STYLE_USAGE(.BOTH.,#3610);
#3630=PRESENTATION_STYLE_ASSIGNMENT((#3620));
#3640=CARTESIAN_POINT('',(0.,0.,0.));
#3650=DIRECTION('',(0.,-1.,0.));
#3660=DIRECTION('',(1.,0.,0.));
#3670=AXIS2_PLACEMENT_3D('',#3640,#3650,#3660);
#3680=CYLINDRICAL_SURFACE('',#3670,35.);
#3690=ORIENTED_EDGE('',*,*,#1020,.F.);
#3700=ORIENTED_EDGE('',*,*,#1420,.T.);
#3710=ORIENTED_EDGE('',*,*,#2040,.T.);
#3720=ORIENTED_EDGE('',*,*,#1270,.F.);
#3730=EDGE_LOOP('',(#3720,#3710,#3700,#3690));
#3740=FACE_OUTER_BOUND('',#3730,.T.);
#3750=ADVANCED_FACE('',(#3740),#3680,.T.);
#3760=COLOUR_RGB('',0.501960813999176,1.,0.501960813999176);
#3770=FILL_AREA_STYLE_COLOUR('',#3760);
#3780=FILL_AREA_STYLE('',(#3770));
#3790=SURFACE_STYLE_FILL_AREA(#3780);
#3800=SURFACE_SIDE_STYLE('',(#3790));
#3810=SURFACE_STYLE_USAGE(.BOTH.,#3800);
#3820=PRESENTATION_STYLE_ASSIGNMENT((#3810));
#3830=CLOSED_SHELL('',(#460,#800,#1080,#1470,#1860,#2090,#2370,#2700,
#2990,#3180,#3370,#3560,#3750));
#3840=MANIFOLD_SOLID_BREP('',#3830);
#3850=CARTESIAN_POINT('',(0.,0.,0.));
#3860=DIRECTION('',(0.,0.,1.));
#3870=DIRECTION('',(1.,0.,0.));
#3880=AXIS2_PLACEMENT_3D('',#3850,#3860,#3870);
#3890=APPLICATION_CONTEXT(' ');
#3900=APPLICATION_PROTOCOL_DEFINITION(' ','automotive_design',1998,#3890
);
#3910=PRODUCT_CONTEXT('',#3890,'mechanical');
#3920=PRODUCT_DEFINITION_CONTEXT('part definition',#3890,'design');
#3930=PRODUCT('2700119_PSD_S_OE_LED_GN-select',
'2700119_PSD_S_OE_LED_GN-select','',(#3910));
#3940=PRODUCT_RELATED_PRODUCT_CATEGORY('part',' ',(#3930));
#3950=PRODUCT_DEFINITION_FORMATION_WITH_SPECIFIED_SOURCE('','',#3930,
.BOUGHT.);
#3960=PRODUCT_DEFINITION('',' ',#3950,#3920);
#3970=PRODUCT_DEFINITION_SHAPE('','',#3960);
#3980=DIMENSIONAL_EXPONENTS(1.,0.,0.,0.,0.,0.,0.);
#3990=DIMENSIONAL_EXPONENTS(0.,0.,0.,0.,0.,0.,0.);
#4000=DIMENSIONAL_EXPONENTS(0.,0.,0.,0.,0.,0.,0.);
#4010=(LENGTH_UNIT() NAMED_UNIT(*) SI_UNIT(.MILLI.,.METRE.));
#4020=(NAMED_UNIT(*) PLANE_ANGLE_UNIT() SI_UNIT($,.RADIAN.));
#4030=(NAMED_UNIT(*) SI_UNIT($,.STERADIAN.) SOLID_ANGLE_UNIT());
#4040=(GEOMETRIC_REPRESENTATION_CONTEXT(3) 
GLOBAL_UNCERTAINTY_ASSIGNED_CONTEXT((#4050)) 
GLOBAL_UNIT_ASSIGNED_CONTEXT((#4010,#4020,#4030)) REPRESENTATION_CONTEXT
('',''));
#4050=UNCERTAINTY_MEASURE_WITH_UNIT(LENGTH_MEASURE(0.012),#4010,
'distance_accuracy_value','maximum gap value');
#4060=ADVANCED_BREP_SHAPE_REPRESENTATION('',(#3880,#3840),#4040);
#4070=SHAPE_DEFINITION_REPRESENTATION(#3970,#4060);
#4080=COLOUR_RGB('',0.501960813999176,1.,0.501960813999176);
#4090=FILL_AREA_STYLE_COLOUR('',#4080);
#4100=FILL_AREA_STYLE('',(#4090));
#4110=SURFACE_STYLE_FILL_AREA(#4100);
#4120=SURFACE_SIDE_STYLE('',(#4110));
#4130=SURFACE_STYLE_USAGE(.BOTH.,#4120);
#4140=PRESENTATION_STYLE_ASSIGNMENT((#4130));
#4150=STYLED_ITEM('',(#4140),#3840);
#4160=OVER_RIDING_STYLED_ITEM('',(#530),#460,#4150);
#4170=OVER_RIDING_STYLED_ITEM('',(#870),#800,#4150);
#4180=OVER_RIDING_STYLED_ITEM('',(#1150),#1080,#4150);
#4190=OVER_RIDING_STYLED_ITEM('',(#1540),#1470,#4150);
#4200=OVER_RIDING_STYLED_ITEM('',(#1930),#1860,#4150);
#4210=OVER_RIDING_STYLED_ITEM('',(#2160),#2090,#4150);
#4220=OVER_RIDING_STYLED_ITEM('',(#2440),#2370,#4150);
#4230=OVER_RIDING_STYLED_ITEM('',(#2770),#2700,#4150);
#4240=OVER_RIDING_STYLED_ITEM('',(#3060),#2990,#4150);
#4250=OVER_RIDING_STYLED_ITEM('',(#3250),#3180,#4150);
#4260=OVER_RIDING_STYLED_ITEM('',(#3440),#3370,#4150);
#4270=OVER_RIDING_STYLED_ITEM('',(#3630),#3560,#4150);
#4280=OVER_RIDING_STYLED_ITEM('',(#3820),#3750,#4150);
#4290=DRAUGHTING_MODEL('',(#4150,#4160,#4170,#4180,#4190,#4200,#4210,
#4220,#4230,#4240,#4250,#4260,#4270,#4280),#4040);
ENDSEC;
END-ISO-10303-21;
