ISO-10303-21;
HEADER;
FILE_DESCRIPTION((''),'2;1');
FILE_NAME('226216002304VM-','2014-09-22T',('Rfroetsch'),(''),
'PRO/ENGINEER BY PARAMETRIC TECHNOLOGY CORPORATION, 2010160',
'PRO/ENGINEER BY PARAMETRIC TECHNOLOGY CORPORATION, 2010160','');
FILE_SCHEMA(('AUTOMOTIVE_DESIGN { 1 0 10303 214 1 1 1 1 }'));
ENDSEC;
DATA;
#1=DRAUGHTING_PRE_DEFINED_COLOUR('black');
#2=COLOUR_RGB('',0.E0,0.E0,6.6E-1);
#3=DRAUGHTING_PRE_DEFINED_COLOUR('blue');
#4=COLOUR_RGB('',0.E0,3.3E-1,0.E0);
#5=COLOUR_RGB('',0.E0,4.5E-1,0.E0);
#6=COLOUR_RGB('',0.E0,6.E-1,0.E0);
#7=COLOUR_RGB('',0.E0,8.E-1,0.E0);
#8=DRAUGHTING_PRE_DEFINED_COLOUR('green');
#9=COLOUR_RGB('',6.7E-2,6.7E-2,6.7E-2);
#10=COLOUR_RGB('',1.01E-1,1.98E-1,9.52E-1);
#11=COLOUR_RGB('',1.06E-1,8.16E-1,2.08E-1);
#12=COLOUR_RGB('',2.E-1,4.E-1,1.E0);
#13=COLOUR_RGB('',2.E-1,8.E-1,1.E0);
#14=COLOUR_RGB('',2.5E-1,2.5E-1,2.5E-1);
#15=COLOUR_RGB('',3.14E-1,7.4E-2,0.E0);
#16=COLOUR_RGB('',4.63E-1,4.43E-1,4.94E-1);
#17=COLOUR_RGB('',5.E-1,5.E-1,5.E-1);
#18=COLOUR_RGB('',5.22E-1,4.94E-1,4.86E-1);
#19=COLOUR_RGB('',6.08E-1,2.3E-2,7.73E-1);
#20=COLOUR_RGB('',6.47E-1,6.47E-1,6.47E-1);
#21=COLOUR_RGB('',7.57E-1,0.E0,0.E0);
#22=COLOUR_RGB('',8.E-1,4.E-1,0.E0);
#23=COLOUR_RGB('',8.E-1,8.E-1,8.E-1);
#24=COLOUR_RGB('',8.E-1,1.E0,1.E0);
#25=COLOUR_RGB('',8.784E-1,9.49E-1,1.E0);
#26=COLOUR_RGB('',8.88889E-1,8.88889E-1,8.88889E-1);
#27=COLOUR_RGB('',9.37E-1,8.51E-1,9.4E-2);
#28=DRAUGHTING_PRE_DEFINED_COLOUR('red');
#29=COLOUR_RGB('',1.E0,0.E0,2.E-1);
#30=COLOUR_RGB('',1.E0,0.E0,4.E-1);
#31=COLOUR_RGB('',1.E0,0.E0,6.E-1);
#32=COLOUR_RGB('',1.E0,0.E0,8.E-1);
#33=COLOUR_RGB('',1.E0,4.E-1,0.E0);
#34=COLOUR_RGB('',1.E0,4.57E-1,0.E0);
#35=COLOUR_RGB('',1.E0,6.E-1,0.E0);
#36=COLOUR_RGB('',1.E0,7.15E-1,4.11E-1);
#37=COLOUR_RGB('',1.E0,8.E-1,0.E0);
#38=COLOUR_RGB('',1.E0,8.E-1,4.E-1);
#39=DRAUGHTING_PRE_DEFINED_COLOUR('yellow');
#40=COLOUR_RGB('',1.E0,1.E0,2.E-1);
#41=COLOUR_RGB('',1.E0,1.E0,4.E-1);
#42=COLOUR_RGB('',1.E0,1.E0,6.E-1);
#43=COLOUR_RGB('',1.E0,1.E0,8.E-1);
#44=DRAUGHTING_PRE_DEFINED_COLOUR('white');
#45=DIRECTION('',(0.E0,0.E0,-1.E0));
#46=VECTOR('',#45,1.287E2);
#47=CARTESIAN_POINT('',(1.E1,0.E0,6.435E1));
#48=LINE('',#47,#46);
#49=CARTESIAN_POINT('',(-2.54E0,0.E0,6.125E1));
#50=DIRECTION('',(0.E0,1.E0,0.E0));
#51=DIRECTION('',(-8.289504583483E-1,0.E0,-5.593220338983E-1));
#52=AXIS2_PLACEMENT_3D('',#49,#50,#51);
#54=DIRECTION('',(1.E0,0.E0,0.E0));
#55=VECTOR('',#54,4.890807704255E0);
#56=CARTESIAN_POINT('',(-4.985403852127E0,0.E0,6.29E1));
#57=LINE('',#56,#55);
#58=CARTESIAN_POINT('',(-2.54E0,0.E0,6.125E1));
#59=DIRECTION('',(0.E0,1.E0,0.E0));
#60=DIRECTION('',(8.289504583483E-1,0.E0,5.593220338983E-1));
#61=AXIS2_PLACEMENT_3D('',#58,#59,#60);
#63=DIRECTION('',(-1.E0,0.E0,0.E0));
#64=VECTOR('',#63,4.890807704255E0);
#65=CARTESIAN_POINT('',(-9.459614787250E-2,0.E0,5.96E1));
#66=LINE('',#65,#64);
#67=CARTESIAN_POINT('',(-2.54E0,0.E0,-6.125E1));
#68=DIRECTION('',(0.E0,1.E0,0.E0));
#69=DIRECTION('',(-8.289504583483E-1,0.E0,-5.593220338983E-1));
#70=AXIS2_PLACEMENT_3D('',#67,#68,#69);
#72=DIRECTION('',(1.E0,0.E0,0.E0));
#73=VECTOR('',#72,4.890807704255E0);
#74=CARTESIAN_POINT('',(-4.985403852127E0,0.E0,-5.96E1));
#75=LINE('',#74,#73);
#76=CARTESIAN_POINT('',(-2.54E0,0.E0,-6.125E1));
#77=DIRECTION('',(0.E0,1.E0,0.E0));
#78=DIRECTION('',(8.289504583483E-1,0.E0,5.593220338983E-1));
#79=AXIS2_PLACEMENT_3D('',#76,#77,#78);
#81=DIRECTION('',(-1.E0,0.E0,0.E0));
#82=VECTOR('',#81,4.890807704255E0);
#83=CARTESIAN_POINT('',(-9.459614787250E-2,0.E0,-6.29E1));
#84=LINE('',#83,#82);
#85=DIRECTION('',(-1.E0,0.E0,0.E0));
#86=VECTOR('',#85,2.E1);
#87=CARTESIAN_POINT('',(1.E1,0.E0,6.435E1));
#88=LINE('',#87,#86);
#89=DIRECTION('',(0.E0,-1.E0,0.E0));
#90=VECTOR('',#89,2.5E0);
#91=CARTESIAN_POINT('',(1.E1,0.E0,6.435E1));
#92=LINE('',#91,#90);
#93=DIRECTION('',(-1.E0,0.E0,0.E0));
#94=VECTOR('',#93,2.E1);
#95=CARTESIAN_POINT('',(1.E1,-2.5E0,6.435E1));
#96=LINE('',#95,#94);
#97=DIRECTION('',(0.E0,-1.E0,0.E0));
#98=VECTOR('',#97,2.5E0);
#99=CARTESIAN_POINT('',(1.E1,0.E0,-6.435E1));
#100=LINE('',#99,#98);
#101=DIRECTION('',(-1.E0,0.E0,0.E0));
#102=VECTOR('',#101,2.E1);
#103=CARTESIAN_POINT('',(1.E1,0.E0,-6.435E1));
#104=LINE('',#103,#102);
#105=DIRECTION('',(0.E0,-1.E0,0.E0));
#106=VECTOR('',#105,2.5E0);
#107=CARTESIAN_POINT('',(-1.E1,0.E0,-6.435E1));
#108=LINE('',#107,#106);
#109=DIRECTION('',(-1.E0,0.E0,0.E0));
#110=VECTOR('',#109,2.E1);
#111=CARTESIAN_POINT('',(1.E1,-2.5E0,-6.435E1));
#112=LINE('',#111,#110);
#113=DIRECTION('',(0.E0,0.E0,-1.E0));
#114=VECTOR('',#113,1.287E2);
#115=CARTESIAN_POINT('',(-1.E1,0.E0,6.435E1));
#116=LINE('',#115,#114);
#117=DIRECTION('',(0.E0,-1.E0,0.E0));
#118=VECTOR('',#117,2.5E0);
#119=CARTESIAN_POINT('',(-1.E1,0.E0,6.435E1));
#120=LINE('',#119,#118);
#121=DIRECTION('',(0.E0,0.E0,-1.E0));
#122=VECTOR('',#121,1.287E2);
#123=CARTESIAN_POINT('',(-1.E1,-2.5E0,6.435E1));
#124=LINE('',#123,#122);
#125=DIRECTION('',(0.E0,0.E0,-1.E0));
#126=VECTOR('',#125,1.287E2);
#127=CARTESIAN_POINT('',(1.E1,-2.5E0,6.435E1));
#128=LINE('',#127,#126);
#129=CARTESIAN_POINT('',(-2.54E0,-2.5E0,6.125E1));
#130=DIRECTION('',(0.E0,1.E0,0.E0));
#131=DIRECTION('',(-8.289504583483E-1,0.E0,-5.593220338983E-1));
#132=AXIS2_PLACEMENT_3D('',#129,#130,#131);
#134=DIRECTION('',(-1.E0,0.E0,0.E0));
#135=VECTOR('',#134,4.890807704255E0);
#136=CARTESIAN_POINT('',(-9.459614787250E-2,-2.5E0,5.96E1));
#137=LINE('',#136,#135);
#138=CARTESIAN_POINT('',(-2.54E0,-2.5E0,6.125E1));
#139=DIRECTION('',(0.E0,1.E0,0.E0));
#140=DIRECTION('',(8.289504583483E-1,0.E0,5.593220338983E-1));
#141=AXIS2_PLACEMENT_3D('',#138,#139,#140);
#143=DIRECTION('',(1.E0,0.E0,0.E0));
#144=VECTOR('',#143,4.890807704255E0);
#145=CARTESIAN_POINT('',(-4.985403852127E0,-2.5E0,6.29E1));
#146=LINE('',#145,#144);
#147=CARTESIAN_POINT('',(-2.54E0,-2.5E0,-6.125E1));
#148=DIRECTION('',(0.E0,1.E0,0.E0));
#149=DIRECTION('',(-8.289504583483E-1,0.E0,-5.593220338983E-1));
#150=AXIS2_PLACEMENT_3D('',#147,#148,#149);
#152=DIRECTION('',(-1.E0,0.E0,0.E0));
#153=VECTOR('',#152,4.890807704255E0);
#154=CARTESIAN_POINT('',(-9.459614787250E-2,-2.5E0,-6.29E1));
#155=LINE('',#154,#153);
#156=CARTESIAN_POINT('',(-2.54E0,-2.5E0,-6.125E1));
#157=DIRECTION('',(0.E0,1.E0,0.E0));
#158=DIRECTION('',(8.289504583483E-1,0.E0,5.593220338983E-1));
#159=AXIS2_PLACEMENT_3D('',#156,#157,#158);
#161=DIRECTION('',(1.E0,0.E0,0.E0));
#162=VECTOR('',#161,4.890807704255E0);
#163=CARTESIAN_POINT('',(-4.985403852127E0,-2.5E0,-5.96E1));
#164=LINE('',#163,#162);
#165=DIRECTION('',(0.E0,-1.E0,0.E0));
#166=VECTOR('',#165,2.5E0);
#167=CARTESIAN_POINT('',(-4.985403852127E0,0.E0,5.96E1));
#168=LINE('',#167,#166);
#169=DIRECTION('',(0.E0,-1.E0,0.E0));
#170=VECTOR('',#169,2.5E0);
#171=CARTESIAN_POINT('',(-9.459614787250E-2,0.E0,5.96E1));
#172=LINE('',#171,#170);
#173=DIRECTION('',(0.E0,-1.E0,0.E0));
#174=VECTOR('',#173,2.5E0);
#175=CARTESIAN_POINT('',(-9.459614787250E-2,0.E0,6.29E1));
#176=LINE('',#175,#174);
#177=DIRECTION('',(0.E0,-1.E0,0.E0));
#178=VECTOR('',#177,2.5E0);
#179=CARTESIAN_POINT('',(-4.985403852127E0,0.E0,6.29E1));
#180=LINE('',#179,#178);
#181=DIRECTION('',(0.E0,-1.E0,0.E0));
#182=VECTOR('',#181,2.5E0);
#183=CARTESIAN_POINT('',(-4.985403852127E0,0.E0,-6.29E1));
#184=LINE('',#183,#182);
#185=DIRECTION('',(0.E0,-1.E0,0.E0));
#186=VECTOR('',#185,2.5E0);
#187=CARTESIAN_POINT('',(-9.459614787250E-2,0.E0,-6.29E1));
#188=LINE('',#187,#186);
#189=DIRECTION('',(0.E0,-1.E0,0.E0));
#190=VECTOR('',#189,2.5E0);
#191=CARTESIAN_POINT('',(-9.459614787250E-2,0.E0,-5.96E1));
#192=LINE('',#191,#190);
#193=DIRECTION('',(0.E0,-1.E0,0.E0));
#194=VECTOR('',#193,2.5E0);
#195=CARTESIAN_POINT('',(-4.985403852127E0,0.E0,-5.96E1));
#196=LINE('',#195,#194);
#197=CARTESIAN_POINT('',(1.E1,0.E0,6.435E1));
#198=CARTESIAN_POINT('',(-1.E1,0.E0,6.435E1));
#199=VERTEX_POINT('',#197);
#200=VERTEX_POINT('',#198);
#201=CARTESIAN_POINT('',(1.E1,0.E0,-6.435E1));
#202=CARTESIAN_POINT('',(-1.E1,0.E0,-6.435E1));
#203=VERTEX_POINT('',#201);
#204=VERTEX_POINT('',#202);
#205=CARTESIAN_POINT('',(1.E1,-2.5E0,6.435E1));
#206=CARTESIAN_POINT('',(-1.E1,-2.5E0,6.435E1));
#207=VERTEX_POINT('',#205);
#208=VERTEX_POINT('',#206);
#209=CARTESIAN_POINT('',(1.E1,-2.5E0,-6.435E1));
#210=CARTESIAN_POINT('',(-1.E1,-2.5E0,-6.435E1));
#211=VERTEX_POINT('',#209);
#212=VERTEX_POINT('',#210);
#213=CARTESIAN_POINT('',(-4.985403852127E0,0.E0,5.96E1));
#214=CARTESIAN_POINT('',(-4.985403852127E0,0.E0,6.29E1));
#215=VERTEX_POINT('',#213);
#216=VERTEX_POINT('',#214);
#217=CARTESIAN_POINT('',(-9.459614787250E-2,0.E0,6.29E1));
#218=VERTEX_POINT('',#217);
#219=CARTESIAN_POINT('',(-9.459614787250E-2,0.E0,5.96E1));
#220=VERTEX_POINT('',#219);
#221=CARTESIAN_POINT('',(-4.985403852127E0,-2.5E0,5.96E1));
#222=CARTESIAN_POINT('',(-4.985403852127E0,-2.5E0,6.29E1));
#223=VERTEX_POINT('',#221);
#224=VERTEX_POINT('',#222);
#225=CARTESIAN_POINT('',(-9.459614787250E-2,-2.5E0,6.29E1));
#226=VERTEX_POINT('',#225);
#227=CARTESIAN_POINT('',(-9.459614787250E-2,-2.5E0,5.96E1));
#228=VERTEX_POINT('',#227);
#229=CARTESIAN_POINT('',(-4.985403852127E0,0.E0,-6.29E1));
#230=CARTESIAN_POINT('',(-4.985403852127E0,0.E0,-5.96E1));
#231=VERTEX_POINT('',#229);
#232=VERTEX_POINT('',#230);
#233=CARTESIAN_POINT('',(-9.459614787250E-2,0.E0,-5.96E1));
#234=VERTEX_POINT('',#233);
#235=CARTESIAN_POINT('',(-9.459614787250E-2,0.E0,-6.29E1));
#236=VERTEX_POINT('',#235);
#237=CARTESIAN_POINT('',(-4.985403852127E0,-2.5E0,-6.29E1));
#238=CARTESIAN_POINT('',(-4.985403852127E0,-2.5E0,-5.96E1));
#239=VERTEX_POINT('',#237);
#240=VERTEX_POINT('',#238);
#241=CARTESIAN_POINT('',(-9.459614787250E-2,-2.5E0,-5.96E1));
#242=VERTEX_POINT('',#241);
#243=CARTESIAN_POINT('',(-9.459614787250E-2,-2.5E0,-6.29E1));
#244=VERTEX_POINT('',#243);
#245=CARTESIAN_POINT('',(1.E1,0.E0,6.435E1));
#246=DIRECTION('',(0.E0,-1.E0,0.E0));
#247=DIRECTION('',(-1.E0,0.E0,0.E0));
#248=AXIS2_PLACEMENT_3D('',#245,#246,#247);
#249=PLANE('',#248);
#251=ORIENTED_EDGE('',*,*,#250,.T.);
#253=ORIENTED_EDGE('',*,*,#252,.T.);
#255=ORIENTED_EDGE('',*,*,#254,.F.);
#257=ORIENTED_EDGE('',*,*,#256,.F.);
#258=EDGE_LOOP('',(#251,#253,#255,#257));
#259=FACE_OUTER_BOUND('',#258,.F.);
#261=ORIENTED_EDGE('',*,*,#260,.T.);
#263=ORIENTED_EDGE('',*,*,#262,.T.);
#265=ORIENTED_EDGE('',*,*,#264,.T.);
#267=ORIENTED_EDGE('',*,*,#266,.T.);
#268=EDGE_LOOP('',(#261,#263,#265,#267));
#269=FACE_BOUND('',#268,.F.);
#271=ORIENTED_EDGE('',*,*,#270,.T.);
#273=ORIENTED_EDGE('',*,*,#272,.T.);
#275=ORIENTED_EDGE('',*,*,#274,.T.);
#277=ORIENTED_EDGE('',*,*,#276,.T.);
#278=EDGE_LOOP('',(#271,#273,#275,#277));
#279=FACE_BOUND('',#278,.F.);
#280=ADVANCED_FACE('',(#259,#269,#279),#249,.F.);
#281=CARTESIAN_POINT('',(0.E0,-1.25E0,6.435E1));
#282=DIRECTION('',(0.E0,0.E0,-1.E0));
#283=DIRECTION('',(-1.E0,0.E0,0.E0));
#284=AXIS2_PLACEMENT_3D('',#281,#282,#283);
#285=PLANE('',#284);
#286=ORIENTED_EDGE('',*,*,#250,.F.);
#288=ORIENTED_EDGE('',*,*,#287,.T.);
#290=ORIENTED_EDGE('',*,*,#289,.T.);
#292=ORIENTED_EDGE('',*,*,#291,.F.);
#293=EDGE_LOOP('',(#286,#288,#290,#292));
#294=FACE_OUTER_BOUND('',#293,.F.);
#295=ADVANCED_FACE('',(#294),#285,.F.);
#296=CARTESIAN_POINT('',(1.E1,-1.25E0,0.E0));
#297=DIRECTION('',(1.E0,0.E0,0.E0));
#298=DIRECTION('',(0.E0,0.E0,-1.E0));
#299=AXIS2_PLACEMENT_3D('',#296,#297,#298);
#300=PLANE('',#299);
#301=ORIENTED_EDGE('',*,*,#256,.T.);
#303=ORIENTED_EDGE('',*,*,#302,.T.);
#305=ORIENTED_EDGE('',*,*,#304,.F.);
#306=ORIENTED_EDGE('',*,*,#287,.F.);
#307=EDGE_LOOP('',(#301,#303,#305,#306));
#308=FACE_OUTER_BOUND('',#307,.F.);
#309=ADVANCED_FACE('',(#308),#300,.T.);
#310=CARTESIAN_POINT('',(0.E0,-1.25E0,-6.435E1));
#311=DIRECTION('',(0.E0,0.E0,-1.E0));
#312=DIRECTION('',(-1.E0,0.E0,0.E0));
#313=AXIS2_PLACEMENT_3D('',#310,#311,#312);
#314=PLANE('',#313);
#315=ORIENTED_EDGE('',*,*,#254,.T.);
#317=ORIENTED_EDGE('',*,*,#316,.T.);
#319=ORIENTED_EDGE('',*,*,#318,.F.);
#320=ORIENTED_EDGE('',*,*,#302,.F.);
#321=EDGE_LOOP('',(#315,#317,#319,#320));
#322=FACE_OUTER_BOUND('',#321,.F.);
#323=ADVANCED_FACE('',(#322),#314,.T.);
#324=CARTESIAN_POINT('',(-1.E1,-1.25E0,0.E0));
#325=DIRECTION('',(1.E0,0.E0,0.E0));
#326=DIRECTION('',(0.E0,0.E0,-1.E0));
#327=AXIS2_PLACEMENT_3D('',#324,#325,#326);
#328=PLANE('',#327);
#329=ORIENTED_EDGE('',*,*,#252,.F.);
#330=ORIENTED_EDGE('',*,*,#291,.T.);
#332=ORIENTED_EDGE('',*,*,#331,.T.);
#333=ORIENTED_EDGE('',*,*,#316,.F.);
#334=EDGE_LOOP('',(#329,#330,#332,#333));
#335=FACE_OUTER_BOUND('',#334,.F.);
#336=ADVANCED_FACE('',(#335),#328,.F.);
#337=CARTESIAN_POINT('',(1.E1,-2.5E0,6.435E1));
#338=DIRECTION('',(0.E0,-1.E0,0.E0));
#339=DIRECTION('',(-1.E0,0.E0,0.E0));
#340=AXIS2_PLACEMENT_3D('',#337,#338,#339);
#341=PLANE('',#340);
#342=ORIENTED_EDGE('',*,*,#289,.F.);
#343=ORIENTED_EDGE('',*,*,#304,.T.);
#344=ORIENTED_EDGE('',*,*,#318,.T.);
#345=ORIENTED_EDGE('',*,*,#331,.F.);
#346=EDGE_LOOP('',(#342,#343,#344,#345));
#347=FACE_OUTER_BOUND('',#346,.F.);
#349=ORIENTED_EDGE('',*,*,#348,.F.);
#351=ORIENTED_EDGE('',*,*,#350,.F.);
#353=ORIENTED_EDGE('',*,*,#352,.F.);
#355=ORIENTED_EDGE('',*,*,#354,.F.);
#356=EDGE_LOOP('',(#349,#351,#353,#355));
#357=FACE_BOUND('',#356,.F.);
#359=ORIENTED_EDGE('',*,*,#358,.F.);
#361=ORIENTED_EDGE('',*,*,#360,.F.);
#363=ORIENTED_EDGE('',*,*,#362,.F.);
#365=ORIENTED_EDGE('',*,*,#364,.F.);
#366=EDGE_LOOP('',(#359,#361,#363,#365));
#367=FACE_BOUND('',#366,.F.);
#368=ADVANCED_FACE('',(#347,#357,#367),#341,.T.);
#369=CARTESIAN_POINT('',(-2.54E0,0.E0,6.125E1));
#370=DIRECTION('',(0.E0,1.E0,0.E0));
#371=DIRECTION('',(1.E0,0.E0,0.E0));
#372=AXIS2_PLACEMENT_3D('',#369,#370,#371);
#373=CYLINDRICAL_SURFACE('',#372,2.95E0);
#374=ORIENTED_EDGE('',*,*,#260,.F.);
#376=ORIENTED_EDGE('',*,*,#375,.T.);
#377=ORIENTED_EDGE('',*,*,#348,.T.);
#379=ORIENTED_EDGE('',*,*,#378,.F.);
#380=EDGE_LOOP('',(#374,#376,#377,#379));
#381=FACE_OUTER_BOUND('',#380,.F.);
#382=ADVANCED_FACE('',(#381),#373,.F.);
#383=CARTESIAN_POINT('',(-9.459614787250E-2,0.E0,5.96E1));
#384=DIRECTION('',(0.E0,0.E0,1.E0));
#385=DIRECTION('',(-1.E0,0.E0,0.E0));
#386=AXIS2_PLACEMENT_3D('',#383,#384,#385);
#387=PLANE('',#386);
#388=ORIENTED_EDGE('',*,*,#266,.F.);
#390=ORIENTED_EDGE('',*,*,#389,.T.);
#391=ORIENTED_EDGE('',*,*,#350,.T.);
#392=ORIENTED_EDGE('',*,*,#375,.F.);
#393=EDGE_LOOP('',(#388,#390,#391,#392));
#394=FACE_OUTER_BOUND('',#393,.F.);
#395=ADVANCED_FACE('',(#394),#387,.T.);
#396=CARTESIAN_POINT('',(-2.54E0,0.E0,6.125E1));
#397=DIRECTION('',(0.E0,1.E0,0.E0));
#398=DIRECTION('',(1.E0,0.E0,0.E0));
#399=AXIS2_PLACEMENT_3D('',#396,#397,#398);
#400=CYLINDRICAL_SURFACE('',#399,2.95E0);
#401=ORIENTED_EDGE('',*,*,#264,.F.);
#403=ORIENTED_EDGE('',*,*,#402,.T.);
#404=ORIENTED_EDGE('',*,*,#352,.T.);
#405=ORIENTED_EDGE('',*,*,#389,.F.);
#406=EDGE_LOOP('',(#401,#403,#404,#405));
#407=FACE_OUTER_BOUND('',#406,.F.);
#408=ADVANCED_FACE('',(#407),#400,.F.);
#409=CARTESIAN_POINT('',(-4.985403852127E0,0.E0,6.29E1));
#410=DIRECTION('',(0.E0,0.E0,-1.E0));
#411=DIRECTION('',(1.E0,0.E0,0.E0));
#412=AXIS2_PLACEMENT_3D('',#409,#410,#411);
#413=PLANE('',#412);
#414=ORIENTED_EDGE('',*,*,#262,.F.);
#415=ORIENTED_EDGE('',*,*,#378,.T.);
#416=ORIENTED_EDGE('',*,*,#354,.T.);
#417=ORIENTED_EDGE('',*,*,#402,.F.);
#418=EDGE_LOOP('',(#414,#415,#416,#417));
#419=FACE_OUTER_BOUND('',#418,.F.);
#420=ADVANCED_FACE('',(#419),#413,.T.);
#421=CARTESIAN_POINT('',(-2.54E0,0.E0,-6.125E1));
#422=DIRECTION('',(0.E0,1.E0,0.E0));
#423=DIRECTION('',(1.E0,0.E0,0.E0));
#424=AXIS2_PLACEMENT_3D('',#421,#422,#423);
#425=CYLINDRICAL_SURFACE('',#424,2.95E0);
#426=ORIENTED_EDGE('',*,*,#270,.F.);
#428=ORIENTED_EDGE('',*,*,#427,.T.);
#429=ORIENTED_EDGE('',*,*,#358,.T.);
#431=ORIENTED_EDGE('',*,*,#430,.F.);
#432=EDGE_LOOP('',(#426,#428,#429,#431));
#433=FACE_OUTER_BOUND('',#432,.F.);
#434=ADVANCED_FACE('',(#433),#425,.F.);
#435=CARTESIAN_POINT('',(-9.459614787250E-2,0.E0,-6.29E1));
#436=DIRECTION('',(0.E0,0.E0,1.E0));
#437=DIRECTION('',(-1.E0,0.E0,0.E0));
#438=AXIS2_PLACEMENT_3D('',#435,#436,#437);
#439=PLANE('',#438);
#440=ORIENTED_EDGE('',*,*,#276,.F.);
#442=ORIENTED_EDGE('',*,*,#441,.T.);
#443=ORIENTED_EDGE('',*,*,#360,.T.);
#444=ORIENTED_EDGE('',*,*,#427,.F.);
#445=EDGE_LOOP('',(#440,#442,#443,#444));
#446=FACE_OUTER_BOUND('',#445,.F.);
#447=ADVANCED_FACE('',(#446),#439,.T.);
#448=CARTESIAN_POINT('',(-2.54E0,0.E0,-6.125E1));
#449=DIRECTION('',(0.E0,1.E0,0.E0));
#450=DIRECTION('',(1.E0,0.E0,0.E0));
#451=AXIS2_PLACEMENT_3D('',#448,#449,#450);
#452=CYLINDRICAL_SURFACE('',#451,2.95E0);
#453=ORIENTED_EDGE('',*,*,#274,.F.);
#455=ORIENTED_EDGE('',*,*,#454,.T.);
#456=ORIENTED_EDGE('',*,*,#362,.T.);
#457=ORIENTED_EDGE('',*,*,#441,.F.);
#458=EDGE_LOOP('',(#453,#455,#456,#457));
#459=FACE_OUTER_BOUND('',#458,.F.);
#460=ADVANCED_FACE('',(#459),#452,.F.);
#461=CARTESIAN_POINT('',(-4.985403852127E0,0.E0,-5.96E1));
#462=DIRECTION('',(0.E0,0.E0,-1.E0));
#463=DIRECTION('',(1.E0,0.E0,0.E0));
#464=AXIS2_PLACEMENT_3D('',#461,#462,#463);
#465=PLANE('',#464);
#466=ORIENTED_EDGE('',*,*,#272,.F.);
#467=ORIENTED_EDGE('',*,*,#430,.T.);
#468=ORIENTED_EDGE('',*,*,#364,.T.);
#469=ORIENTED_EDGE('',*,*,#454,.F.);
#470=EDGE_LOOP('',(#466,#467,#468,#469));
#471=FACE_OUTER_BOUND('',#470,.F.);
#472=ADVANCED_FACE('',(#471),#465,.T.);
#473=CLOSED_SHELL('',(#280,#295,#309,#323,#336,#368,#382,#395,#408,#420,#434,
#447,#460,#472));
#474=MANIFOLD_SOLID_BREP('',#473);
#475=(LENGTH_UNIT()NAMED_UNIT(*)SI_UNIT(.MILLI.,.METRE.));
#476=DIMENSIONAL_EXPONENTS(0.E0,0.E0,0.E0,0.E0,0.E0,0.E0,0.E0);
#477=(NAMED_UNIT(*)PLANE_ANGLE_UNIT()SI_UNIT($,.RADIAN.));
#478=PLANE_ANGLE_MEASURE_WITH_UNIT(PLANE_ANGLE_MEASURE(1.745329251994E-2),#477);
#479=(CONVERSION_BASED_UNIT('DEGREE',#478)NAMED_UNIT(#476)PLANE_ANGLE_UNIT());
#480=(NAMED_UNIT(*)SI_UNIT($,.STERADIAN.)SOLID_ANGLE_UNIT());
#481=UNCERTAINTY_MEASURE_WITH_UNIT(LENGTH_MEASURE(1.302635115140E-2),#475,
'distance_accuracy_value',
'Maximum model space distance between geometric entities at asserted connectivities');
#482=(GEOMETRIC_REPRESENTATION_CONTEXT(3)GLOBAL_UNCERTAINTY_ASSIGNED_CONTEXT((
#481))GLOBAL_UNIT_ASSIGNED_CONTEXT((#475,#479,#480))REPRESENTATION_CONTEXT
('ID1','3'));
#484=APPLICATION_CONTEXT('automotive_design');
#485=APPLICATION_PROTOCOL_DEFINITION('international standard',
'automotive_design',2001,#484);
#486=PRODUCT_DEFINITION_CONTEXT('part definition',#484,'design');
#487=PRODUCT_CONTEXT('',#484,'mechanical');
#488=PRODUCT('226216002304VM-','226216002304VM-','NOT SPECIFIED',(#487));
#489=PRODUCT_DEFINITION_FORMATION('36','LAST_VERSION',#488);
#496=(LENGTH_UNIT()NAMED_UNIT(*)SI_UNIT(.MILLI.,.METRE.));
#497=DERIVED_UNIT_ELEMENT(#496,2.E0);
#498=DERIVED_UNIT((#497));
#499=MEASURE_REPRESENTATION_ITEM('surface area measure',AREA_MEASURE(
5.901825057272E3),#498);
#503=(LENGTH_UNIT()NAMED_UNIT(*)SI_UNIT(.MILLI.,.METRE.));
#504=DERIVED_UNIT_ELEMENT(#503,3.E0);
#505=DERIVED_UNIT((#504));
#506=MEASURE_REPRESENTATION_ITEM('volume measure',VOLUME_MEASURE(
6.342995606270E3),#505);
#510=CARTESIAN_POINT('centre point',(3.684238436490E-2,-1.25E0,
-5.508460639163E-9));
#515=PRODUCT_RELATED_PRODUCT_CATEGORY('part','',(#488));
#53=CIRCLE('',#52,2.95E0);
#62=CIRCLE('',#61,2.95E0);
#71=CIRCLE('',#70,2.95E0);
#80=CIRCLE('',#79,2.95E0);
#133=CIRCLE('',#132,2.95E0);
#142=CIRCLE('',#141,2.95E0);
#151=CIRCLE('',#150,2.95E0);
#160=CIRCLE('',#159,2.95E0);
#250=EDGE_CURVE('',#199,#200,#88,.T.);
#252=EDGE_CURVE('',#200,#204,#116,.T.);
#254=EDGE_CURVE('',#203,#204,#104,.T.);
#256=EDGE_CURVE('',#199,#203,#48,.T.);
#260=EDGE_CURVE('',#215,#216,#53,.T.);
#262=EDGE_CURVE('',#216,#218,#57,.T.);
#264=EDGE_CURVE('',#218,#220,#62,.T.);
#266=EDGE_CURVE('',#220,#215,#66,.T.);
#270=EDGE_CURVE('',#231,#232,#71,.T.);
#272=EDGE_CURVE('',#232,#234,#75,.T.);
#274=EDGE_CURVE('',#234,#236,#80,.T.);
#276=EDGE_CURVE('',#236,#231,#84,.T.);
#287=EDGE_CURVE('',#199,#207,#92,.T.);
#289=EDGE_CURVE('',#207,#208,#96,.T.);
#291=EDGE_CURVE('',#200,#208,#120,.T.);
#302=EDGE_CURVE('',#203,#211,#100,.T.);
#304=EDGE_CURVE('',#207,#211,#128,.T.);
#316=EDGE_CURVE('',#204,#212,#108,.T.);
#318=EDGE_CURVE('',#211,#212,#112,.T.);
#331=EDGE_CURVE('',#208,#212,#124,.T.);
#348=EDGE_CURVE('',#223,#224,#133,.T.);
#350=EDGE_CURVE('',#228,#223,#137,.T.);
#352=EDGE_CURVE('',#226,#228,#142,.T.);
#354=EDGE_CURVE('',#224,#226,#146,.T.);
#358=EDGE_CURVE('',#239,#240,#151,.T.);
#360=EDGE_CURVE('',#244,#239,#155,.T.);
#362=EDGE_CURVE('',#242,#244,#160,.T.);
#364=EDGE_CURVE('',#240,#242,#164,.T.);
#375=EDGE_CURVE('',#215,#223,#168,.T.);
#378=EDGE_CURVE('',#216,#224,#180,.T.);
#389=EDGE_CURVE('',#220,#228,#172,.T.);
#402=EDGE_CURVE('',#218,#226,#176,.T.);
#427=EDGE_CURVE('',#231,#239,#184,.T.);
#430=EDGE_CURVE('',#232,#240,#196,.T.);
#441=EDGE_CURVE('',#236,#244,#188,.T.);
#454=EDGE_CURVE('',#234,#242,#192,.T.);
#483=ADVANCED_BREP_SHAPE_REPRESENTATION('',(#474),#482);
#490=PRODUCT_DEFINITION('part definition','',#489,#486);
#491=PRODUCT_DEFINITION_SHAPE('','SHAPE FOR 226216002304VM-.',#490);
#492=SHAPE_REPRESENTATION('',(#474),#482);
#493=SHAPE_ASPECT('','solid data associated with 226216002304VM-',#491,.F.);
#494=PROPERTY_DEFINITION('',
'shape for solid data with which properties are associated',#493);
#495=SHAPE_DEFINITION_REPRESENTATION(#494,#492);
#500=PROPERTY_DEFINITION('geometric_validation_property',
'area of 226216002304VM-',#493);
#501=REPRESENTATION('surface area',(#499),#482);
#502=PROPERTY_DEFINITION_REPRESENTATION(#500,#501);
#507=PROPERTY_DEFINITION('geometric_validation_property',
'volume of 226216002304VM-',#493);
#508=REPRESENTATION('volume',(#506),#482);
#509=PROPERTY_DEFINITION_REPRESENTATION(#507,#508);
#511=PROPERTY_DEFINITION('geometric_validation_property',
'centroid of 226216002304VM-',#493);
#512=REPRESENTATION('centroid',(#510),#482);
#513=PROPERTY_DEFINITION_REPRESENTATION(#511,#512);
#514=SHAPE_DEFINITION_REPRESENTATION(#491,#483);
ENDSEC;
END-ISO-10303-21;
