                                                                        S      1
,,7HAB2022A,27HNo Iges File Name specified,22HAutodesk Inventor 2011,   G      1
37HAutoDesk Inventor Iges Exporter R2011,32,38,6,99,15,7HAB2022A,1.0D0, G      2
2,2HMM,1,.08D0,15H20120105.165841,.01D0,10000.0D0,4HDunn,,11,0,,;       G      3
     406       1       0       0       1       0       0       000000000D      1
     406       0       0       1       3                               0D      2
     116       2       0       0       0       0       0       000010000D      3
     116       0       0       1       0                               0D      4
     123       3       0       0       0       0       0       000010200D      5
     123       0       0       1       0                               0D      6
     192       4       0       0       0       0       0       000010000D      7
     192       0       0       1       1                               0D      8
     123       5       0       0       0       0       0       000010200D      9
     123       0       0       1       0                               0D     10
     504       6       0       0       0       0       0       000010001D     11
     504       0       0       5       1                               0D     12
     502      11       0       0       0       0       0       000010000D     13
     502       0       0      10       1                               0D     14
     110      21       0       0       0       0       0       000010000D     15
     110       0       0       2       0                               0D     16
     100      23       0       0       0       0      19       000010000D     17
     100       0       0       1       0                               0D     18
     124      24       0       0       0       0       0       000000000D     19
     124       0       0       2       0                               0D     20
     110      26       0       0       0       0       0       000010000D     21
     110       0       0       2       0                               0D     22
     100      28       0       0       0       0      25       000010000D     23
     100       0       0       1       0                               0D     24
     124      29       0       0       0       0       0       000000000D     25
     124       0       0       2       0                               0D     26
     508      31       0       0       0       0       0       000010000D     27
     508       0       0       1       1                               0D     28
     510      32       0       0       0       0       0       000010000D     29
     510       0    -179       1       1                               0D     30
     116      33       0       0       0       0       0       000010000D     31
     116       0       0       1       0                               0D     32
     123      34       0       0       0       0       0       000010200D     33
     123       0       0       1       0                               0D     34
     192      35       0       0       0       0       0       000010000D     35
     192       0       0       1       1                               0D     36
     123      36       0       0       0       0       0       000010200D     37
     123       0       0       1       0                               0D     38
     110      37       0       0       0       0       0       000010000D     39
     110       0       0       2       0                               0D     40
     100      39       0       0       0       0      43       000010000D     41
     100       0       0       1       0                               0D     42
     124      40       0       0       0       0       0       000000000D     43
     124       0       0       2       0                               0D     44
     110      42       0       0       0       0       0       000010000D     45
     110       0       0       2       0                               0D     46
     100      44       0       0       0       0      19       000010000D     47
     100       0       0       1       0                               0D     48
     508      45       0       0       0       0       0       000010000D     49
     508       0       0       1       1                               0D     50
     510      46       0       0       0       0       0       000010000D     51
     510       0    -181       1       1                               0D     52
     116      47       0       0       0       0       0       000010000D     53
     116       0       0       1       0                               0D     54
     123      48       0       0       0       0       0       000010200D     55
     123       0       0       1       0                               0D     56
     192      49       0       0       0       0       0       000010000D     57
     192       0       0       1       1                               0D     58
     123      50       0       0       0       0       0       000010200D     59
     123       0       0       1       0                               0D     60
     110      51       0       0       0       0       0       000010000D     61
     110       0       0       2       0                               0D     62
     100      53       0       0       0       0      65       000010000D     63
     100       0       0       1       0                               0D     64
     124      54       0       0       0       0       0       000000000D     65
     124       0       0       2       0                               0D     66
     110      56       0       0       0       0       0       000010000D     67
     110       0       0       2       0                               0D     68
     100      58       0       0       0       0      43       000010000D     69
     100       0       0       1       0                               0D     70
     508      59       0       0       0       0       0       000010000D     71
     508       0       0       1       1                               0D     72
     510      60       0       0       0       0       0       000010000D     73
     510       0    -183       1       1                               0D     74
     116      61       0       0       0       0       0       000010000D     75
     116       0       0       1       0                               0D     76
     123      62       0       0       0       0       0       000010200D     77
     123       0       0       1       0                               0D     78
     192      63       0       0       0       0       0       000010000D     79
     192       0       0       1       1                               0D     80
     123      64       0       0       0       0       0       000010200D     81
     123       0       0       1       0                               0D     82
     100      65       0       0       0       0      43       000010000D     83
     100       0       0       2       0                               0D     84
     100      67       0       0       0       0      65       000010000D     85
     100       0       0       2       0                               0D     86
     508      69       0       0       0       0       0       000010000D     87
     508       0       0       1       1                               0D     88
     510      70       0       0       0       0       0       000010000D     89
     510       0    -183       1       1                               0D     90
     116      71       0       0       0       0       0       000010000D     91
     116       0       0       1       0                               0D     92
     123      72       0       0       0       0       0       000010200D     93
     123       0       0       1       0                               0D     94
     190      73       0       0       0       0       0       000010000D     95
     190       0       0       1       1                               0D     96
     123      74       0       0       0       0       0       000010200D     97
     123       0       0       1       0                               0D     98
     508      75       0       0       0       0       0       000010000D     99
     508       0       0       1       1                               0D    100
     510      76       0       0       0       0       0       000010000D    101
     510       0    -183       1       1                               0D    102
     116      77       0       0       0       0       0       000010000D    103
     116       0       0       1       0                               0D    104
     123      78       0       0       0       0       0       000010200D    105
     123       0       0       1       0                               0D    106
     192      79       0       0       0       0       0       000010000D    107
     192       0       0       1       1                               0D    108
     123      80       0       0       0       0       0       000010200D    109
     123       0       0       1       0                               0D    110
     100      81       0       0       0       0      19       000010000D    111
     100       0       0       2       0                               0D    112
     100      83       0       0       0       0      43       000010000D    113
     100       0       0       2       0                               0D    114
     508      85       0       0       0       0       0       000010000D    115
     508       0       0       1       1                               0D    116
     510      86       0       0       0       0       0       000010000D    117
     510       0    -181       1       1                               0D    118
     116      87       0       0       0       0       0       000010000D    119
     116       0       0       1       0                               0D    120
     123      88       0       0       0       0       0       000010200D    121
     123       0       0       1       0                               0D    122
     190      89       0       0       0       0       0       000010000D    123
     190       0       0       1       1                               0D    124
     123      90       0       0       0       0       0       000010200D    125
     123       0       0       1       0                               0D    126
     508      91       0       0       0       0       0       000010000D    127
     508       0       0       1       1                               0D    128
     508      92       0       0       0       0       0       000010000D    129
     508       0       0       1       1                               0D    130
     510      93       0       0       0       0       0       000010000D    131
     510       0    -181       1       1                               0D    132
     116      94       0       0       0       0       0       000010000D    133
     116       0       0       1       0                               0D    134
     123      95       0       0       0       0       0       000010200D    135
     123       0       0       1       0                               0D    136
     192      96       0       0       0       0       0       000010000D    137
     192       0       0       1       1                               0D    138
     123      97       0       0       0       0       0       000010200D    139
     123       0       0       1       0                               0D    140
     100      98       0       0       0       0      25       000010000D    141
     100       0       0       2       0                               0D    142
     100     100       0       0       0       0      19       000010000D    143
     100       0       0       2       0                               0D    144
     508     102       0       0       0       0       0       000010000D    145
     508       0       0       1       1                               0D    146
     510     103       0       0       0       0       0       000010000D    147
     510       0    -179       1       1                               0D    148
     116     104       0       0       0       0       0       000010000D    149
     116       0       0       1       0                               0D    150
     123     105       0       0       0       0       0       000010200D    151
     123       0       0       1       0                               0D    152
     190     106       0       0       0       0       0       000010000D    153
     190       0       0       1       1                               0D    154
     123     107       0       0       0       0       0       000010200D    155
     123       0       0       1       0                               0D    156
     508     108       0       0       0       0       0       000010000D    157
     508       0       0       1       1                               0D    158
     508     109       0       0       0       0       0       000010000D    159
     508       0       0       1       1                               0D    160
     510     110       0       0       0       0       0       000010000D    161
     510       0    -179       1       1                               0D    162
     116     111       0       0       0       0       0       000010000D    163
     116       0       0       1       0                               0D    164
     123     112       0       0       0       0       0       000010200D    165
     123       0       0       1       0                               0D    166
     190     113       0       0       0       0       0       000010000D    167
     190       0       0       1       1                               0D    168
     123     114       0       0       0       0       0       000010200D    169
     123       0       0       1       0                               0D    170
     508     115       0       0       0       0       0       000010000D    171
     508       0       0       1       1                               0D    172
     510     116       0       0       0       0       0       000010000D    173
     510       0    -179       1       1                               0D    174
     514     117       0       0       0       0       0       000010000D    175
     514       0       0       1       1                               0D    176
     186     118       0       0       1       0       0       000000000D    177
     186       0       0       1       0                  Solid1       0D    178
     314     119       0       0       0       0       0       000000000D    179
     314       0       8       1       0                               0D    180
     314     120       0       0       0       0       0       000000000D    181
     314       0       1       1       0                               0D    182
     314     121       0       0       0       0       0       000000000D    183
     314       0       8       1       0                               0D    184
406,2,0,7HAB2022A;                                                     1P      1
116,162.857990533502D0,165.509424295518D0,0.0D0,0;                     3P      2
123,0.0D0,0.0D0,1.0D0;                                                 5P      3
192,3,5,10.0D0,9;                                                      7P      4
123,-1.0D0,0.0D0,0.0D0;                                                9P      5
504,18,15,13,1,13,2,17,13,1,13,3,21,13,3,13,4,23,13,2,13,4,39,        11P      6
13,5,13,6,41,13,5,13,7,45,13,7,13,8,47,13,6,13,8,61,13,9,13,10,       11P      7
63,13,9,13,11,67,13,11,13,12,69,13,10,13,12,83,13,12,13,10,85,        11P      8
13,11,13,9,111,13,8,13,6,113,13,7,13,5,141,13,4,13,2,143,13,3,        11P      9
13,1;                                                                 11P     10
502,12,152.857990533502D0,165.509424295518D0,.05D0,                   13P     11
152.857990533502D0,165.509424295518D0,0.0D0,172.857990533502D0,       13P     12
165.509424295518D0,.05D0,172.857990533502D0,165.509424295518D0,       13P     13
0.0D0,155.357990533502D0,165.509424295518D0,.09D0,                    13P     14
155.357990533502D0,165.509424295518D0,.05D0,170.357990533502D0,       13P     15
165.509424295518D0,.09D0,170.357990533502D0,165.509424295518D0,       13P     16
.05D0,155.607990533502D0,165.509424295518D0,.1D0,                     13P     17
155.607990533502D0,165.509424295518D0,.09D0,170.107990533502D0,       13P     18
165.509424295518D0,.1D0,170.107990533502D0,165.509424295518D0,        13P     19
.09D0;                                                                13P     20
110,152.857990533502D0,165.509424295518D0,.05D0,                      15P     21
152.857990533502D0,165.509424295518D0,0.0D0;                          15P     22
100,0.0D0,0.0D0,0.0D0,10.0D0,0.0D0,-10.0D0,1.22464679914735D-15;      17P     23
124,-1.0D0,0.0D0,0.0D0,162.857990533502D0,0.0D0,1.0D0,0.0D0,          19P     24
165.509424295518D0,0.0D0,0.0D0,-1.0D0,.05D0;                          19P     25
110,172.857990533502D0,165.509424295518D0,.05D0,                      21P     26
172.857990533502D0,165.509424295518D0,0.0D0;                          21P     27
100,0.0D0,0.0D0,0.0D0,10.0D0,0.0D0,-10.0D0,1.22464679914735D-15;      23P     28
124,-1.0D0,0.0D0,0.0D0,162.857990533502D0,0.0D0,1.0D0,0.0D0,          25P     29
165.509424295518D0,0.0D0,0.0D0,-1.0D0,0.0D0;                          25P     30
508,4,0,11,1,0,0,0,11,2,1,0,0,11,3,1,0,0,11,4,0,0;                    27P     31
510,7,1,1,27;                                                         29P     32
116,162.857990533502D0,165.509424295518D0,.05D0,0;                    31P     33
123,0.0D0,0.0D0,1.0D0;                                                33P     34
192,31,33,7.5D0,37;                                                   35P     35
123,-1.0D0,0.0D0,0.0D0;                                               37P     36
110,155.357990533502D0,165.509424295518D0,.09D0,                      39P     37
155.357990533502D0,165.509424295518D0,.05D0;                          39P     38
100,0.0D0,0.0D0,0.0D0,7.5D0,0.0D0,-7.5D0,9.18485099360515D-16;        41P     39
124,-1.0D0,0.0D0,0.0D0,162.857990533502D0,0.0D0,1.0D0,0.0D0,          43P     40
165.509424295518D0,0.0D0,0.0D0,-1.0D0,.09D0;                          43P     41
110,170.357990533502D0,165.509424295518D0,.09D0,                      45P     42
170.357990533502D0,165.509424295518D0,.05D0;                          45P     43
100,0.0D0,0.0D0,0.0D0,7.5D0,0.0D0,-7.5D0,9.18485099360515D-16;        47P     44
508,4,0,11,5,0,0,0,11,6,1,0,0,11,7,1,0,0,11,8,0,0;                    49P     45
510,35,1,1,49;                                                        51P     46
116,162.857990533502D0,165.509424295518D0,.09D0,0;                    53P     47
123,0.0D0,0.0D0,1.0D0;                                                55P     48
192,53,55,7.25D0,59;                                                  57P     49
123,-1.0D0,0.0D0,0.0D0;                                               59P     50
110,155.607990533502D0,165.509424295518D0,.1D0,                       61P     51
155.607990533502D0,165.509424295518D0,.09D0;                          61P     52
100,0.0D0,0.0D0,0.0D0,7.25D0,0.0D0,-7.25D0,8.87868929381831D-16;      63P     53
124,-1.0D0,0.0D0,0.0D0,162.857990533502D0,0.0D0,1.0D0,0.0D0,          65P     54
165.509424295518D0,0.0D0,0.0D0,-1.0D0,.1D0;                           65P     55
110,170.107990533502D0,165.509424295518D0,.1D0,                       67P     56
170.107990533502D0,165.509424295518D0,.09D0;                          67P     57
100,0.0D0,0.0D0,0.0D0,7.25D0,0.0D0,-7.25D0,8.87868929381831D-16;      69P     58
508,4,0,11,9,0,0,0,11,10,1,0,0,11,11,1,0,0,11,12,0,0;                 71P     59
510,57,1,1,71;                                                        73P     60
116,162.857990533502D0,165.509424295518D0,.09D0,0;                    75P     61
123,0.0D0,0.0D0,1.0D0;                                                77P     62
192,75,77,7.25D0,81;                                                  79P     63
123,-1.0D0,0.0D0,0.0D0;                                               81P     64
100,0.0D0,0.0D0,0.0D0,-7.25D0,8.87868929381831D-16,7.25D0,            83P     65
-1.77573785876366D-15;                                                83P     66
100,0.0D0,0.0D0,0.0D0,-7.25D0,8.87868929381831D-16,7.25D0,            85P     67
-1.77573785876366D-15;                                                85P     68
508,4,0,11,9,1,0,0,11,13,0,0,0,11,11,0,0,0,11,14,1,0;                 87P     69
510,79,1,1,87;                                                        89P     70
116,162.857990533502D0,165.509424295518D0,.1D0,0;                     91P     71
123,0.0D0,0.0D0,1.0D0;                                                93P     72
190,91,93,97;                                                         95P     73
123,1.0D0,0.0D0,0.0D0;                                                97P     74
508,2,0,11,14,0,0,0,11,10,0,0;                                        99P     75
510,95,1,1,99;                                                       101P     76
116,162.857990533502D0,165.509424295518D0,.05D0,0;                   103P     77
123,0.0D0,0.0D0,1.0D0;                                               105P     78
192,103,105,7.5D0,109;                                               107P     79
123,-1.0D0,0.0D0,0.0D0;                                              109P     80
100,0.0D0,0.0D0,0.0D0,-7.5D0,9.18485099360515D-16,7.5D0,             111P     81
-1.83697019872103D-15;                                               111P     82
100,0.0D0,0.0D0,0.0D0,-7.5D0,9.18485099360515D-16,7.5D0,             113P     83
-1.83697019872103D-15;                                               113P     84
508,4,0,11,5,1,0,0,11,15,0,0,0,11,7,0,0,0,11,16,1,0;                 115P     85
510,107,1,1,115;                                                     117P     86
116,162.857990533502D0,165.509424295518D0,.09D0,0;                   119P     87
123,0.0D0,0.0D0,1.0D0;                                               121P     88
190,119,121,125;                                                     123P     89
123,1.0D0,0.0D0,0.0D0;                                               125P     90
508,2,0,11,16,0,0,0,11,6,0,0;                                        127P     91
508,2,0,11,13,1,0,0,11,12,1,0;                                       129P     92
510,123,2,1,127,129;                                                 131P     93
116,162.857990533502D0,165.509424295518D0,0.0D0,0;                   133P     94
123,0.0D0,0.0D0,1.0D0;                                               135P     95
192,133,135,10.0D0,139;                                              137P     96
123,-1.0D0,0.0D0,0.0D0;                                              139P     97
100,0.0D0,0.0D0,0.0D0,-10.0D0,1.22464679914735D-15,10.0D0,           141P     98
-2.44929359829471D-15;                                               141P     99
100,0.0D0,0.0D0,0.0D0,-10.0D0,1.22464679914735D-15,10.0D0,           143P    100
-2.44929359829471D-15;                                               143P    101
508,4,0,11,1,1,0,0,11,17,0,0,0,11,3,0,0,0,11,18,1,0;                 145P    102
510,137,1,1,145;                                                     147P    103
116,162.857990533502D0,165.509424295518D0,.05D0,0;                   149P    104
123,0.0D0,0.0D0,1.0D0;                                               151P    105
190,149,151,155;                                                     153P    106
123,1.0D0,0.0D0,0.0D0;                                               155P    107
508,2,0,11,18,0,0,0,11,2,0,0;                                        157P    108
508,2,0,11,15,1,0,0,11,8,1,0;                                        159P    109
510,153,2,1,157,159;                                                 161P    110
116,162.857990533502D0,165.509424295518D0,0.0D0,0;                   163P    111
123,0.0D0,0.0D0,-1.0D0;                                              165P    112
190,163,165,169;                                                     167P    113
123,-1.0D0,0.0D0,0.0D0;                                              169P    114
508,2,0,11,17,1,0,0,11,4,1,0;                                        171P    115
510,167,1,1,171;                                                     173P    116
514,10,29,1,51,1,73,1,89,1,101,1,117,1,131,1,147,1,161,1,173,1;      175P    117
186,175,1,0;                                                         177P    118
314,92.1568632125854D0,92.1568632125854D0,92.9411768913269D0,;       179P    119
314,37.2548997402191D0,30.9803992509842D0,19.607800245285D0,;        181P    120
314,80.0000011920929D0,80.0000011920929D0,80.0000011920929D0,;       183P    121
S      1G      3D    184P    121                                        T      1
